ISO-10303-21;
HEADER;
/* Generated by software containing ST-Developer
 * from STEP Tools, Inc. (www.steptools.com) 
 */
/* OPTION: using custom renumber hook */

FILE_DESCRIPTION(
/* description */ ('STEP AP214'),
/* implementation_level */ '2;1');

FILE_NAME(
/* name */ '3002114H',
/* time_stamp */ '2023-03-01T14:23:42+01:00',
/* author */ ('License CC BY-ND 4.0'),
/* organization */ ('CADENAS'),
/* preprocessor_version */ 'ST-DEVELOPER v18.102',
/* originating_system */ 'PARTsolutions',
/* authorisation */ '  ');

FILE_SCHEMA (('AUTOMOTIVE_DESIGN {1 0 10303 214 3 1 1}'));
ENDSEC;

DATA;
#10=PROPERTY_DEFINITION_REPRESENTATION(#14,#12);
#11=PROPERTY_DEFINITION_REPRESENTATION(#15,#13);
#12=REPRESENTATION('',(#16),#517);
#13=REPRESENTATION('',(#17),#517);
#14=PROPERTY_DEFINITION('pmi validation property','',#522);
#15=PROPERTY_DEFINITION('pmi validation property','',#522);
#16=VALUE_REPRESENTATION_ITEM('number of annotations',COUNT_MEASURE(0.));
#17=VALUE_REPRESENTATION_ITEM('number of views',COUNT_MEASURE(0.));
#18=SHAPE_REPRESENTATION_RELATIONSHIP('','',#295,#19);
#19=ADVANCED_BREP_SHAPE_REPRESENTATION('',(#293),#517);
#20=CYLINDRICAL_SURFACE('',#300,80.);
#21=CYLINDRICAL_SURFACE('',#304,77.5);
#22=CYLINDRICAL_SURFACE('',#308,82.5);
#23=CYLINDRICAL_SURFACE('',#312,77.5);
#24=CYLINDRICAL_SURFACE('',#316,80.);
#25=CYLINDRICAL_SURFACE('',#320,82.5);
#26=CYLINDRICAL_SURFACE('',#324,80.);
#27=CYLINDRICAL_SURFACE('',#328,177.5);
#28=CYLINDRICAL_SURFACE('',#332,175.);
#29=CYLINDRICAL_SURFACE('',#336,177.5);
#30=CYLINDRICAL_SURFACE('',#340,80.);
#31=CYLINDRICAL_SURFACE('',#344,82.5);
#32=ORIENTED_EDGE('',*,*,#80,.T.);
#33=ORIENTED_EDGE('',*,*,#81,.F.);
#34=ORIENTED_EDGE('',*,*,#82,.T.);
#35=ORIENTED_EDGE('',*,*,#80,.F.);
#36=ORIENTED_EDGE('',*,*,#83,.T.);
#37=ORIENTED_EDGE('',*,*,#82,.F.);
#38=ORIENTED_EDGE('',*,*,#84,.T.);
#39=ORIENTED_EDGE('',*,*,#83,.F.);
#40=ORIENTED_EDGE('',*,*,#85,.T.);
#41=ORIENTED_EDGE('',*,*,#84,.F.);
#42=ORIENTED_EDGE('',*,*,#86,.T.);
#43=ORIENTED_EDGE('',*,*,#85,.F.);
#44=ORIENTED_EDGE('',*,*,#87,.T.);
#45=ORIENTED_EDGE('',*,*,#86,.F.);
#46=ORIENTED_EDGE('',*,*,#88,.T.);
#47=ORIENTED_EDGE('',*,*,#87,.F.);
#48=ORIENTED_EDGE('',*,*,#89,.T.);
#49=ORIENTED_EDGE('',*,*,#88,.F.);
#50=ORIENTED_EDGE('',*,*,#90,.T.);
#51=ORIENTED_EDGE('',*,*,#89,.F.);
#52=ORIENTED_EDGE('',*,*,#91,.T.);
#53=ORIENTED_EDGE('',*,*,#90,.F.);
#54=ORIENTED_EDGE('',*,*,#92,.T.);
#55=ORIENTED_EDGE('',*,*,#91,.F.);
#56=ORIENTED_EDGE('',*,*,#93,.T.);
#57=ORIENTED_EDGE('',*,*,#92,.F.);
#58=ORIENTED_EDGE('',*,*,#94,.T.);
#59=ORIENTED_EDGE('',*,*,#93,.F.);
#60=ORIENTED_EDGE('',*,*,#95,.T.);
#61=ORIENTED_EDGE('',*,*,#94,.F.);
#62=ORIENTED_EDGE('',*,*,#96,.T.);
#63=ORIENTED_EDGE('',*,*,#95,.F.);
#64=ORIENTED_EDGE('',*,*,#97,.T.);
#65=ORIENTED_EDGE('',*,*,#96,.F.);
#66=ORIENTED_EDGE('',*,*,#98,.T.);
#67=ORIENTED_EDGE('',*,*,#97,.F.);
#68=ORIENTED_EDGE('',*,*,#99,.T.);
#69=ORIENTED_EDGE('',*,*,#98,.F.);
#70=ORIENTED_EDGE('',*,*,#100,.T.);
#71=ORIENTED_EDGE('',*,*,#99,.F.);
#72=ORIENTED_EDGE('',*,*,#101,.T.);
#73=ORIENTED_EDGE('',*,*,#100,.F.);
#74=ORIENTED_EDGE('',*,*,#102,.T.);
#75=ORIENTED_EDGE('',*,*,#101,.F.);
#76=ORIENTED_EDGE('',*,*,#103,.T.);
#77=ORIENTED_EDGE('',*,*,#102,.F.);
#78=ORIENTED_EDGE('',*,*,#81,.T.);
#79=ORIENTED_EDGE('',*,*,#103,.F.);
#80=EDGE_CURVE('',#104,#104,#128,.T.);
#81=EDGE_CURVE('',#105,#105,#129,.T.);
#82=EDGE_CURVE('',#106,#106,#130,.T.);
#83=EDGE_CURVE('',#107,#107,#131,.T.);
#84=EDGE_CURVE('',#108,#108,#132,.T.);
#85=EDGE_CURVE('',#109,#109,#133,.T.);
#86=EDGE_CURVE('',#110,#110,#134,.T.);
#87=EDGE_CURVE('',#111,#111,#135,.T.);
#88=EDGE_CURVE('',#112,#112,#136,.T.);
#89=EDGE_CURVE('',#113,#113,#137,.T.);
#90=EDGE_CURVE('',#114,#114,#138,.T.);
#91=EDGE_CURVE('',#115,#115,#139,.T.);
#92=EDGE_CURVE('',#116,#116,#140,.T.);
#93=EDGE_CURVE('',#117,#117,#141,.T.);
#94=EDGE_CURVE('',#118,#118,#142,.T.);
#95=EDGE_CURVE('',#119,#119,#143,.T.);
#96=EDGE_CURVE('',#120,#120,#144,.T.);
#97=EDGE_CURVE('',#121,#121,#145,.T.);
#98=EDGE_CURVE('',#122,#122,#146,.T.);
#99=EDGE_CURVE('',#123,#123,#147,.T.);
#100=EDGE_CURVE('',#124,#124,#148,.T.);
#101=EDGE_CURVE('',#125,#125,#149,.T.);
#102=EDGE_CURVE('',#126,#126,#150,.T.);
#103=EDGE_CURVE('',#127,#127,#151,.T.);
#104=VERTEX_POINT('',#446);
#105=VERTEX_POINT('',#448);
#106=VERTEX_POINT('',#451);
#107=VERTEX_POINT('',#454);
#108=VERTEX_POINT('',#457);
#109=VERTEX_POINT('',#460);
#110=VERTEX_POINT('',#463);
#111=VERTEX_POINT('',#466);
#112=VERTEX_POINT('',#469);
#113=VERTEX_POINT('',#472);
#114=VERTEX_POINT('',#475);
#115=VERTEX_POINT('',#478);
#116=VERTEX_POINT('',#481);
#117=VERTEX_POINT('',#484);
#118=VERTEX_POINT('',#487);
#119=VERTEX_POINT('',#490);
#120=VERTEX_POINT('',#493);
#121=VERTEX_POINT('',#496);
#122=VERTEX_POINT('',#499);
#123=VERTEX_POINT('',#502);
#124=VERTEX_POINT('',#505);
#125=VERTEX_POINT('',#508);
#126=VERTEX_POINT('',#511);
#127=VERTEX_POINT('',#514);
#128=CIRCLE('',#298,80.);
#129=CIRCLE('',#299,82.5);
#130=CIRCLE('',#301,80.);
#131=CIRCLE('',#303,77.5);
#132=CIRCLE('',#305,77.5);
#133=CIRCLE('',#307,82.5);
#134=CIRCLE('',#309,82.5);
#135=CIRCLE('',#311,77.5);
#136=CIRCLE('',#313,77.5);
#137=CIRCLE('',#315,80.);
#138=CIRCLE('',#317,80.);
#139=CIRCLE('',#319,82.5);
#140=CIRCLE('',#321,82.5);
#141=CIRCLE('',#323,80.);
#142=CIRCLE('',#325,80.);
#143=CIRCLE('',#327,177.5);
#144=CIRCLE('',#329,177.5);
#145=CIRCLE('',#331,175.);
#146=CIRCLE('',#333,175.);
#147=CIRCLE('',#335,177.5);
#148=CIRCLE('',#337,177.5);
#149=CIRCLE('',#339,80.);
#150=CIRCLE('',#341,80.);
#151=CIRCLE('',#343,82.5);
#152=EDGE_LOOP('',(#32));
#153=EDGE_LOOP('',(#33));
#154=EDGE_LOOP('',(#34));
#155=EDGE_LOOP('',(#35));
#156=EDGE_LOOP('',(#36));
#157=EDGE_LOOP('',(#37));
#158=EDGE_LOOP('',(#38));
#159=EDGE_LOOP('',(#39));
#160=EDGE_LOOP('',(#40));
#161=EDGE_LOOP('',(#41));
#162=EDGE_LOOP('',(#42));
#163=EDGE_LOOP('',(#43));
#164=EDGE_LOOP('',(#44));
#165=EDGE_LOOP('',(#45));
#166=EDGE_LOOP('',(#46));
#167=EDGE_LOOP('',(#47));
#168=EDGE_LOOP('',(#48));
#169=EDGE_LOOP('',(#49));
#170=EDGE_LOOP('',(#50));
#171=EDGE_LOOP('',(#51));
#172=EDGE_LOOP('',(#52));
#173=EDGE_LOOP('',(#53));
#174=EDGE_LOOP('',(#54));
#175=EDGE_LOOP('',(#55));
#176=EDGE_LOOP('',(#56));
#177=EDGE_LOOP('',(#57));
#178=EDGE_LOOP('',(#58));
#179=EDGE_LOOP('',(#59));
#180=EDGE_LOOP('',(#60));
#181=EDGE_LOOP('',(#61));
#182=EDGE_LOOP('',(#62));
#183=EDGE_LOOP('',(#63));
#184=EDGE_LOOP('',(#64));
#185=EDGE_LOOP('',(#65));
#186=EDGE_LOOP('',(#66));
#187=EDGE_LOOP('',(#67));
#188=EDGE_LOOP('',(#68));
#189=EDGE_LOOP('',(#69));
#190=EDGE_LOOP('',(#70));
#191=EDGE_LOOP('',(#71));
#192=EDGE_LOOP('',(#72));
#193=EDGE_LOOP('',(#73));
#194=EDGE_LOOP('',(#74));
#195=EDGE_LOOP('',(#75));
#196=EDGE_LOOP('',(#76));
#197=EDGE_LOOP('',(#77));
#198=EDGE_LOOP('',(#78));
#199=EDGE_LOOP('',(#79));
#200=FACE_BOUND('',#152,.T.);
#201=FACE_BOUND('',#153,.T.);
#202=FACE_BOUND('',#154,.T.);
#203=FACE_BOUND('',#155,.T.);
#204=FACE_BOUND('',#156,.T.);
#205=FACE_BOUND('',#157,.T.);
#206=FACE_BOUND('',#158,.T.);
#207=FACE_BOUND('',#159,.T.);
#208=FACE_BOUND('',#160,.T.);
#209=FACE_BOUND('',#161,.T.);
#210=FACE_BOUND('',#162,.T.);
#211=FACE_BOUND('',#163,.T.);
#212=FACE_BOUND('',#164,.T.);
#213=FACE_BOUND('',#165,.T.);
#214=FACE_BOUND('',#166,.T.);
#215=FACE_BOUND('',#167,.T.);
#216=FACE_BOUND('',#168,.T.);
#217=FACE_BOUND('',#169,.T.);
#218=FACE_BOUND('',#170,.T.);
#219=FACE_BOUND('',#171,.T.);
#220=FACE_BOUND('',#172,.T.);
#221=FACE_BOUND('',#173,.T.);
#222=FACE_BOUND('',#174,.T.);
#223=FACE_BOUND('',#175,.T.);
#224=FACE_BOUND('',#176,.T.);
#225=FACE_BOUND('',#177,.T.);
#226=FACE_BOUND('',#178,.T.);
#227=FACE_BOUND('',#179,.T.);
#228=FACE_BOUND('',#180,.T.);
#229=FACE_BOUND('',#181,.T.);
#230=FACE_BOUND('',#182,.T.);
#231=FACE_BOUND('',#183,.T.);
#232=FACE_BOUND('',#184,.T.);
#233=FACE_BOUND('',#185,.T.);
#234=FACE_BOUND('',#186,.T.);
#235=FACE_BOUND('',#187,.T.);
#236=FACE_BOUND('',#188,.T.);
#237=FACE_BOUND('',#189,.T.);
#238=FACE_BOUND('',#190,.T.);
#239=FACE_BOUND('',#191,.T.);
#240=FACE_BOUND('',#192,.T.);
#241=FACE_BOUND('',#193,.T.);
#242=FACE_BOUND('',#194,.T.);
#243=FACE_BOUND('',#195,.T.);
#244=FACE_BOUND('',#196,.T.);
#245=FACE_BOUND('',#197,.T.);
#246=FACE_BOUND('',#198,.T.);
#247=FACE_BOUND('',#199,.T.);
#248=PLANE('',#297);
#249=PLANE('',#302);
#250=PLANE('',#306);
#251=PLANE('',#310);
#252=PLANE('',#314);
#253=PLANE('',#318);
#254=PLANE('',#322);
#255=PLANE('',#326);
#256=PLANE('',#330);
#257=PLANE('',#334);
#258=PLANE('',#338);
#259=PLANE('',#342);
#260=ADVANCED_FACE('',(#200,#201),#248,.T.);
#261=ADVANCED_FACE('',(#202,#203),#20,.F.);
#262=ADVANCED_FACE('',(#204,#205),#249,.T.);
#263=ADVANCED_FACE('',(#206,#207),#21,.F.);
#264=ADVANCED_FACE('',(#208,#209),#250,.T.);
#265=ADVANCED_FACE('',(#210,#211),#22,.F.);
#266=ADVANCED_FACE('',(#212,#213),#251,.T.);
#267=ADVANCED_FACE('',(#214,#215),#23,.F.);
#268=ADVANCED_FACE('',(#216,#217),#252,.T.);
#269=ADVANCED_FACE('',(#218,#219),#24,.F.);
#270=ADVANCED_FACE('',(#220,#221),#253,.T.);
#271=ADVANCED_FACE('',(#222,#223),#25,.T.);
#272=ADVANCED_FACE('',(#224,#225),#254,.T.);
#273=ADVANCED_FACE('',(#226,#227),#26,.T.);
#274=ADVANCED_FACE('',(#228,#229),#255,.T.);
#275=ADVANCED_FACE('',(#230,#231),#27,.T.);
#276=ADVANCED_FACE('',(#232,#233),#256,.T.);
#277=ADVANCED_FACE('',(#234,#235),#28,.T.);
#278=ADVANCED_FACE('',(#236,#237),#257,.T.);
#279=ADVANCED_FACE('',(#238,#239),#29,.T.);
#280=ADVANCED_FACE('',(#240,#241),#258,.T.);
#281=ADVANCED_FACE('',(#242,#243),#30,.T.);
#282=ADVANCED_FACE('',(#244,#245),#259,.T.);
#283=ADVANCED_FACE('',(#246,#247),#31,.T.);
#284=CLOSED_SHELL('',(#260,#261,#262,#263,#264,#265,#266,#267,#268,#269,
#270,#271,#272,#273,#274,#275,#276,#277,#278,#279,#280,#281,#282,#283));
#285=STYLED_ITEM('',(#286),#293);
#286=PRESENTATION_STYLE_ASSIGNMENT((#287));
#287=SURFACE_STYLE_USAGE(.BOTH.,#288);
#288=SURFACE_SIDE_STYLE('',(#289));
#289=SURFACE_STYLE_FILL_AREA(#290);
#290=FILL_AREA_STYLE('',(#291));
#291=FILL_AREA_STYLE_COLOUR('',#292);
#292=COLOUR_RGB('',0.479999989271164,0.5,0.479999989271164);
#293=MANIFOLD_SOLID_BREP('3002114H',#284);
#294=SHAPE_DEFINITION_REPRESENTATION(#522,#295);
#295=SHAPE_REPRESENTATION('3002114H',(#296),#517);
#296=AXIS2_PLACEMENT_3D('',#443,#345,#346);
#297=AXIS2_PLACEMENT_3D('',#444,#347,#348);
#298=AXIS2_PLACEMENT_3D('',#445,#349,#350);
#299=AXIS2_PLACEMENT_3D('',#447,#351,#352);
#300=AXIS2_PLACEMENT_3D('',#449,#353,#354);
#301=AXIS2_PLACEMENT_3D('',#450,#355,#356);
#302=AXIS2_PLACEMENT_3D('',#452,#357,#358);
#303=AXIS2_PLACEMENT_3D('',#453,#359,#360);
#304=AXIS2_PLACEMENT_3D('',#455,#361,#362);
#305=AXIS2_PLACEMENT_3D('',#456,#363,#364);
#306=AXIS2_PLACEMENT_3D('',#458,#365,#366);
#307=AXIS2_PLACEMENT_3D('',#459,#367,#368);
#308=AXIS2_PLACEMENT_3D('',#461,#369,#370);
#309=AXIS2_PLACEMENT_3D('',#462,#371,#372);
#310=AXIS2_PLACEMENT_3D('',#464,#373,#374);
#311=AXIS2_PLACEMENT_3D('',#465,#375,#376);
#312=AXIS2_PLACEMENT_3D('',#467,#377,#378);
#313=AXIS2_PLACEMENT_3D('',#468,#379,#380);
#314=AXIS2_PLACEMENT_3D('',#470,#381,#382);
#315=AXIS2_PLACEMENT_3D('',#471,#383,#384);
#316=AXIS2_PLACEMENT_3D('',#473,#385,#386);
#317=AXIS2_PLACEMENT_3D('',#474,#387,#388);
#318=AXIS2_PLACEMENT_3D('',#476,#389,#390);
#319=AXIS2_PLACEMENT_3D('',#477,#391,#392);
#320=AXIS2_PLACEMENT_3D('',#479,#393,#394);
#321=AXIS2_PLACEMENT_3D('',#480,#395,#396);
#322=AXIS2_PLACEMENT_3D('',#482,#397,#398);
#323=AXIS2_PLACEMENT_3D('',#483,#399,#400);
#324=AXIS2_PLACEMENT_3D('',#485,#401,#402);
#325=AXIS2_PLACEMENT_3D('',#486,#403,#404);
#326=AXIS2_PLACEMENT_3D('',#488,#405,#406);
#327=AXIS2_PLACEMENT_3D('',#489,#407,#408);
#328=AXIS2_PLACEMENT_3D('',#491,#409,#410);
#329=AXIS2_PLACEMENT_3D('',#492,#411,#412);
#330=AXIS2_PLACEMENT_3D('',#494,#413,#414);
#331=AXIS2_PLACEMENT_3D('',#495,#415,#416);
#332=AXIS2_PLACEMENT_3D('',#497,#417,#418);
#333=AXIS2_PLACEMENT_3D('',#498,#419,#420);
#334=AXIS2_PLACEMENT_3D('',#500,#421,#422);
#335=AXIS2_PLACEMENT_3D('',#501,#423,#424);
#336=AXIS2_PLACEMENT_3D('',#503,#425,#426);
#337=AXIS2_PLACEMENT_3D('',#504,#427,#428);
#338=AXIS2_PLACEMENT_3D('',#506,#429,#430);
#339=AXIS2_PLACEMENT_3D('',#507,#431,#432);
#340=AXIS2_PLACEMENT_3D('',#509,#433,#434);
#341=AXIS2_PLACEMENT_3D('',#510,#435,#436);
#342=AXIS2_PLACEMENT_3D('',#512,#437,#438);
#343=AXIS2_PLACEMENT_3D('',#513,#439,#440);
#344=AXIS2_PLACEMENT_3D('',#515,#441,#442);
#345=DIRECTION('',(0.,0.,1.));
#346=DIRECTION('',(1.,0.,0.));
#347=DIRECTION('',(-1.,0.,0.));
#348=DIRECTION('',(0.,0.,1.));
#349=DIRECTION('',(1.,0.,0.));
#350=DIRECTION('',(0.,0.,-1.));
#351=DIRECTION('',(1.,0.,0.));
#352=DIRECTION('',(0.,0.,-1.));
#353=DIRECTION('',(1.,0.,0.));
#354=DIRECTION('',(0.,0.,-1.));
#355=DIRECTION('',(1.,0.,0.));
#356=DIRECTION('',(0.,0.,-1.));
#357=DIRECTION('',(-1.,0.,0.));
#358=DIRECTION('',(0.,0.,1.));
#359=DIRECTION('',(1.,0.,0.));
#360=DIRECTION('',(0.,0.,-1.));
#361=DIRECTION('',(1.,0.,0.));
#362=DIRECTION('',(0.,0.,-1.));
#363=DIRECTION('',(1.,0.,0.));
#364=DIRECTION('',(0.,0.,-1.));
#365=DIRECTION('',(1.,0.,0.));
#366=DIRECTION('',(0.,0.,-1.));
#367=DIRECTION('',(1.,0.,0.));
#368=DIRECTION('',(0.,0.,-1.));
#369=DIRECTION('',(1.,0.,0.));
#370=DIRECTION('',(0.,0.,-1.));
#371=DIRECTION('',(1.,0.,0.));
#372=DIRECTION('',(0.,0.,-1.));
#373=DIRECTION('',(-1.,0.,0.));
#374=DIRECTION('',(0.,0.,1.));
#375=DIRECTION('',(1.,0.,0.));
#376=DIRECTION('',(0.,0.,-1.));
#377=DIRECTION('',(1.,0.,0.));
#378=DIRECTION('',(0.,0.,-1.));
#379=DIRECTION('',(1.,0.,0.));
#380=DIRECTION('',(0.,0.,-1.));
#381=DIRECTION('',(1.,0.,0.));
#382=DIRECTION('',(0.,0.,-1.));
#383=DIRECTION('',(1.,0.,0.));
#384=DIRECTION('',(0.,0.,-1.));
#385=DIRECTION('',(1.,0.,0.));
#386=DIRECTION('',(0.,0.,-1.));
#387=DIRECTION('',(1.,0.,0.));
#388=DIRECTION('',(0.,0.,-1.));
#389=DIRECTION('',(1.,0.,0.));
#390=DIRECTION('',(0.,0.,-1.));
#391=DIRECTION('',(1.,0.,0.));
#392=DIRECTION('',(0.,0.,-1.));
#393=DIRECTION('',(1.,0.,0.));
#394=DIRECTION('',(0.,0.,-1.));
#395=DIRECTION('',(1.,0.,0.));
#396=DIRECTION('',(0.,0.,-1.));
#397=DIRECTION('',(-1.,0.,0.));
#398=DIRECTION('',(0.,0.,1.));
#399=DIRECTION('',(1.,0.,0.));
#400=DIRECTION('',(0.,0.,-1.));
#401=DIRECTION('',(1.,0.,0.));
#402=DIRECTION('',(0.,0.,-1.));
#403=DIRECTION('',(1.,0.,0.));
#404=DIRECTION('',(0.,0.,-1.));
#405=DIRECTION('',(1.,0.,0.));
#406=DIRECTION('',(0.,0.,-1.));
#407=DIRECTION('',(1.,0.,0.));
#408=DIRECTION('',(0.,0.,-1.));
#409=DIRECTION('',(1.,0.,0.));
#410=DIRECTION('',(0.,0.,-1.));
#411=DIRECTION('',(1.,0.,0.));
#412=DIRECTION('',(0.,0.,-1.));
#413=DIRECTION('',(-1.,0.,0.));
#414=DIRECTION('',(0.,0.,1.));
#415=DIRECTION('',(1.,0.,0.));
#416=DIRECTION('',(0.,0.,-1.));
#417=DIRECTION('',(1.,0.,0.));
#418=DIRECTION('',(0.,0.,-1.));
#419=DIRECTION('',(1.,0.,0.));
#420=DIRECTION('',(0.,0.,-1.));
#421=DIRECTION('',(1.,0.,0.));
#422=DIRECTION('',(0.,0.,-1.));
#423=DIRECTION('',(1.,0.,0.));
#424=DIRECTION('',(0.,0.,-1.));
#425=DIRECTION('',(1.,0.,0.));
#426=DIRECTION('',(0.,0.,-1.));
#427=DIRECTION('',(1.,0.,0.));
#428=DIRECTION('',(0.,0.,-1.));
#429=DIRECTION('',(-1.,0.,0.));
#430=DIRECTION('',(0.,0.,1.));
#431=DIRECTION('',(1.,0.,0.));
#432=DIRECTION('',(0.,0.,-1.));
#433=DIRECTION('',(1.,0.,0.));
#434=DIRECTION('',(0.,0.,-1.));
#435=DIRECTION('',(1.,0.,0.));
#436=DIRECTION('',(0.,0.,-1.));
#437=DIRECTION('',(1.,0.,0.));
#438=DIRECTION('',(0.,0.,-1.));
#439=DIRECTION('',(1.,0.,0.));
#440=DIRECTION('',(0.,0.,-1.));
#441=DIRECTION('',(1.,0.,0.));
#442=DIRECTION('',(0.,0.,-1.));
#443=CARTESIAN_POINT('',(0.,0.,0.));
#444=CARTESIAN_POINT('',(-541.,82.5,0.));
#445=CARTESIAN_POINT('',(-541.,0.,0.));
#446=CARTESIAN_POINT('',(-541.,0.,-80.));
#447=CARTESIAN_POINT('',(-541.,0.,0.));
#448=CARTESIAN_POINT('',(-541.,0.,-82.5));
#449=CARTESIAN_POINT('',(0.,0.,0.));
#450=CARTESIAN_POINT('',(-501.,0.,0.));
#451=CARTESIAN_POINT('',(-501.,0.,-80.));
#452=CARTESIAN_POINT('',(-501.,80.,0.));
#453=CARTESIAN_POINT('',(-501.,0.,0.));
#454=CARTESIAN_POINT('',(-501.,0.,-77.5));
#455=CARTESIAN_POINT('',(0.,0.,0.));
#456=CARTESIAN_POINT('',(-486.5,0.,0.));
#457=CARTESIAN_POINT('',(-486.5,0.,-77.5));
#458=CARTESIAN_POINT('',(-486.5,77.5,0.));
#459=CARTESIAN_POINT('',(-486.5,0.,0.));
#460=CARTESIAN_POINT('',(-486.5,0.,-82.5));
#461=CARTESIAN_POINT('',(0.,0.,0.));
#462=CARTESIAN_POINT('',(486.5,0.,0.));
#463=CARTESIAN_POINT('',(486.5,0.,-82.5));
#464=CARTESIAN_POINT('',(486.5,82.5,0.));
#465=CARTESIAN_POINT('',(486.5,0.,0.));
#466=CARTESIAN_POINT('',(486.5,0.,-77.5));
#467=CARTESIAN_POINT('',(0.,0.,0.));
#468=CARTESIAN_POINT('',(501.,0.,0.));
#469=CARTESIAN_POINT('',(501.,0.,-77.5));
#470=CARTESIAN_POINT('',(501.,77.5,0.));
#471=CARTESIAN_POINT('',(501.,0.,0.));
#472=CARTESIAN_POINT('',(501.,0.,-80.));
#473=CARTESIAN_POINT('',(0.,0.,0.));
#474=CARTESIAN_POINT('',(541.,0.,0.));
#475=CARTESIAN_POINT('',(541.,0.,-80.));
#476=CARTESIAN_POINT('',(541.,80.,0.));
#477=CARTESIAN_POINT('',(541.,0.,0.));
#478=CARTESIAN_POINT('',(541.,0.,-82.5));
#479=CARTESIAN_POINT('',(0.,0.,0.));
#480=CARTESIAN_POINT('',(498.5,0.,0.));
#481=CARTESIAN_POINT('',(498.5,0.,-82.5));
#482=CARTESIAN_POINT('',(498.5,82.5,0.));
#483=CARTESIAN_POINT('',(498.5,0.,0.));
#484=CARTESIAN_POINT('',(498.5,0.,-80.));
#485=CARTESIAN_POINT('',(0.,0.,0.));
#486=CARTESIAN_POINT('',(489.,0.,0.));
#487=CARTESIAN_POINT('',(489.,0.,-80.));
#488=CARTESIAN_POINT('',(489.,80.,0.));
#489=CARTESIAN_POINT('',(489.,0.,0.));
#490=CARTESIAN_POINT('',(489.,0.,-177.5));
#491=CARTESIAN_POINT('',(0.,0.,0.));
#492=CARTESIAN_POINT('',(477.,0.,0.));
#493=CARTESIAN_POINT('',(477.,0.,-177.5));
#494=CARTESIAN_POINT('',(477.,177.5,0.));
#495=CARTESIAN_POINT('',(477.,0.,0.));
#496=CARTESIAN_POINT('',(477.,0.,-175.));
#497=CARTESIAN_POINT('',(0.,0.,0.));
#498=CARTESIAN_POINT('',(-477.,0.,0.));
#499=CARTESIAN_POINT('',(-477.,0.,-175.));
#500=CARTESIAN_POINT('',(-477.,175.,0.));
#501=CARTESIAN_POINT('',(-477.,0.,0.));
#502=CARTESIAN_POINT('',(-477.,0.,-177.5));
#503=CARTESIAN_POINT('',(0.,0.,0.));
#504=CARTESIAN_POINT('',(-489.,0.,0.));
#505=CARTESIAN_POINT('',(-489.,0.,-177.5));
#506=CARTESIAN_POINT('',(-489.,177.5,0.));
#507=CARTESIAN_POINT('',(-489.,0.,0.));
#508=CARTESIAN_POINT('',(-489.,0.,-80.));
#509=CARTESIAN_POINT('',(0.,0.,0.));
#510=CARTESIAN_POINT('',(-498.5,0.,0.));
#511=CARTESIAN_POINT('',(-498.5,0.,-80.));
#512=CARTESIAN_POINT('',(-498.5,80.,0.));
#513=CARTESIAN_POINT('',(-498.5,0.,0.));
#514=CARTESIAN_POINT('',(-498.5,0.,-82.5));
#515=CARTESIAN_POINT('',(0.,0.,0.));
#516=MECHANICAL_DESIGN_GEOMETRIC_PRESENTATION_REPRESENTATION('',(#285),
#517);
#517=(
GEOMETRIC_REPRESENTATION_CONTEXT(3)
GLOBAL_UNCERTAINTY_ASSIGNED_CONTEXT((#518))
GLOBAL_UNIT_ASSIGNED_CONTEXT((#521,#520,#519))
REPRESENTATION_CONTEXT('3002114H','TOP_LEVEL_ASSEMBLY_PART')
);
#518=UNCERTAINTY_MEASURE_WITH_UNIT(LENGTH_MEASURE(0.005),#521,
'DISTANCE_ACCURACY_VALUE','Maximum Tolerance applied to model');
#519=(
NAMED_UNIT(*)
SI_UNIT($,.STERADIAN.)
SOLID_ANGLE_UNIT()
);
#520=(
NAMED_UNIT(*)
PLANE_ANGLE_UNIT()
SI_UNIT($,.RADIAN.)
);
#521=(
LENGTH_UNIT()
NAMED_UNIT(*)
SI_UNIT(.MILLI.,.METRE.)
);
#522=PRODUCT_DEFINITION_SHAPE('','',#523);
#523=PRODUCT_DEFINITION('','',#525,#524);
#524=PRODUCT_DEFINITION_CONTEXT('',#531,'design');
#525=PRODUCT_DEFINITION_FORMATION_WITH_SPECIFIED_SOURCE('','',#527,
 .NOT_KNOWN.);
#526=PRODUCT_RELATED_PRODUCT_CATEGORY('','',(#527));
#527=PRODUCT('3002114H','3002114H','3002114H',(#529));
#528=PRODUCT_CATEGORY('','');
#529=PRODUCT_CONTEXT('',#531,'mechanical');
#530=APPLICATION_PROTOCOL_DEFINITION('international standard',
'automotive_design',2010,#531);
#531=APPLICATION_CONTEXT(
'core data for automotive mechanical design processes');
ENDSEC;
END-ISO-10303-21;
