ISO-10303-21;
HEADER;
FILE_DESCRIPTION( ( 'STEP AP214' ), '1' );
FILE_NAME( 'p:/temp/worker_1/temp/exporttempdir_3216_8_emaVf/format_0/AGRU_70193161171_Poly-Flo End Cap_PE 100-RC black_160_110  SDR17_11 (architecture400).stp', '2022-01-21T07:41:51', ( 'License CC BY-ND 4.0' ), ( 'CADENAS' ), ' ', 'PARTsolutions', ' ' );
FILE_SCHEMA( ( 'AUTOMOTIVE_DESIGN { 1 0 10303 214 1 1 1 1 }' ) );
ENDSEC;
DATA;
#1 = MECHANICAL_DESIGN_GEOMETRIC_PRESENTATION_REPRESENTATION( ' ', ( #10, #11, #12, #13, #14, #15, #16, #17, #18, #19, #20, #21, #22 ), #6 );
#2 = PRODUCT_DEFINITION_CONTEXT( '', #23, 'design' );
#3 = APPLICATION_PROTOCOL_DEFINITION( 'international standard', 'automotive_design', 2001, #23 );
#4 = PRODUCT_CATEGORY_RELATIONSHIP( 'NONE', 'NONE', #24, #25 );
#5 = SHAPE_DEFINITION_REPRESENTATION( #26, #27 );
#6 =  ( GEOMETRIC_REPRESENTATION_CONTEXT( 3 )GLOBAL_UNCERTAINTY_ASSIGNED_CONTEXT( ( #30 ) )GLOBAL_UNIT_ASSIGNED_CONTEXT( ( #32, #33, #34 ) )REPRESENTATION_CONTEXT( 'NONE', 'WORKSPACE' ) );
#10 = STYLED_ITEM( '', ( #36 ), #37 );
#11 = STYLED_ITEM( '', ( #38 ), #39 );
#12 = STYLED_ITEM( '', ( #40 ), #41 );
#13 = STYLED_ITEM( '', ( #42 ), #43 );
#14 = STYLED_ITEM( '', ( #44 ), #45 );
#15 = STYLED_ITEM( '', ( #46 ), #47 );
#16 = STYLED_ITEM( '', ( #48 ), #49 );
#17 = STYLED_ITEM( '', ( #50 ), #51 );
#18 = STYLED_ITEM( '', ( #52 ), #53 );
#19 = STYLED_ITEM( '', ( #54 ), #55 );
#20 = STYLED_ITEM( '', ( #56 ), #57 );
#21 = STYLED_ITEM( '', ( #58 ), #59 );
#22 = STYLED_ITEM( '', ( #60 ), #61 );
#23 = APPLICATION_CONTEXT( 'core data for automotive mechanical design processes' );
#24 = PRODUCT_CATEGORY( 'part', 'NONE' );
#25 = PRODUCT_RELATED_PRODUCT_CATEGORY( 'detail', ' ', ( #62 ) );
#26 = PRODUCT_DEFINITION_SHAPE( 'NONE', 'NONE', #63 );
#27 = ADVANCED_BREP_SHAPE_REPRESENTATION( '_AGRU_70193161171_Poly-Flo End Cap_PE 100-RC black_160/110  SDR17/11 (architecture400)', ( #64, #65 ), #6 );
#30 = UNCERTAINTY_MEASURE_WITH_UNIT( LENGTH_MEASURE( 0.00100000000000000 ), #32, '', '' );
#32 =  ( CONVERSION_BASED_UNIT( 'MILLIMETRE', #68 )LENGTH_UNIT(  )NAMED_UNIT( #71 ) );
#33 =  ( NAMED_UNIT( #73 )PLANE_ANGLE_UNIT(  )SI_UNIT( $, .RADIAN. ) );
#34 =  ( NAMED_UNIT( #73 )SI_UNIT( $, .STERADIAN. )SOLID_ANGLE_UNIT(  ) );
#36 = PRESENTATION_STYLE_ASSIGNMENT( ( #79 ) );
#37 = ADVANCED_FACE( '', ( #80, #81 ), #82, .F. );
#38 = PRESENTATION_STYLE_ASSIGNMENT( ( #83 ) );
#39 = ADVANCED_FACE( '', ( #84, #85 ), #86, .F. );
#40 = PRESENTATION_STYLE_ASSIGNMENT( ( #87 ) );
#41 = ADVANCED_FACE( '', ( #88, #89 ), #90, .T. );
#42 = PRESENTATION_STYLE_ASSIGNMENT( ( #91 ) );
#43 = ADVANCED_FACE( '', ( #92, #93 ), #94, .F. );
#44 = PRESENTATION_STYLE_ASSIGNMENT( ( #95 ) );
#45 = ADVANCED_FACE( '', ( #96 ), #97, .F. );
#46 = PRESENTATION_STYLE_ASSIGNMENT( ( #98 ) );
#47 = ADVANCED_FACE( '', ( #99, #100 ), #101, .T. );
#48 = PRESENTATION_STYLE_ASSIGNMENT( ( #102 ) );
#49 = ADVANCED_FACE( '', ( #103, #104 ), #105, .F. );
#50 = PRESENTATION_STYLE_ASSIGNMENT( ( #106 ) );
#51 = ADVANCED_FACE( '', ( #107, #108 ), #109, .F. );
#52 = PRESENTATION_STYLE_ASSIGNMENT( ( #110 ) );
#53 = ADVANCED_FACE( '', ( #111, #112 ), #113, .T. );
#54 = PRESENTATION_STYLE_ASSIGNMENT( ( #114 ) );
#55 = ADVANCED_FACE( '', ( #115 ), #116, .F. );
#56 = PRESENTATION_STYLE_ASSIGNMENT( ( #117 ) );
#57 = ADVANCED_FACE( '', ( #118, #119 ), #120, .F. );
#58 = PRESENTATION_STYLE_ASSIGNMENT( ( #121 ) );
#59 = ADVANCED_FACE( '', ( #122, #123 ), #124, .F. );
#60 = PRESENTATION_STYLE_ASSIGNMENT( ( #125 ) );
#61 = ADVANCED_FACE( '', ( #126, #127 ), #128, .F. );
#62 = PRODUCT( '_AGRU_70193161171_Poly-Flo End Cap_PE 100-RC black_160/110  SDR17/11 (architecture400)', '_AGRU_70193161171_Poly-Flo End Cap_PE 100-RC black_160/110  SDR17/11 (architecture400)', 'PART-_AGRU_70193161171_Poly-Flo End Cap_PE 100-RC black_160/110  SDR17/11 (architecture400)-DESC', ( #129 ) );
#63 = PRODUCT_DEFINITION( 'NONE', 'NONE', #130, #2 );
#64 = MANIFOLD_SOLID_BREP( '_AGRU_70193161171_Poly-Flo End Cap_PE 100-RC black_160/110  SDR17/11 (architecture400)', #131 );
#65 = AXIS2_PLACEMENT_3D( '', #132, #133, #134 );
#68 = LENGTH_MEASURE_WITH_UNIT( LENGTH_MEASURE( 1.00000000000000 ), #135 );
#71 = DIMENSIONAL_EXPONENTS( 1.00000000000000, 0.000000000000000, 0.000000000000000, 0.000000000000000, 0.000000000000000, 0.000000000000000, 0.000000000000000 );
#73 = DIMENSIONAL_EXPONENTS( 0.000000000000000, 0.000000000000000, 0.000000000000000, 0.000000000000000, 0.000000000000000, 0.000000000000000, 0.000000000000000 );
#79 = SURFACE_STYLE_USAGE( .BOTH., #136 );
#80 = FACE_OUTER_BOUND( '', #137, .T. );
#81 = FACE_OUTER_BOUND( '', #138, .T. );
#82 = TOROIDAL_SURFACE( '', #139, 58.5250000000000, 3.52500000000000 );
#83 = SURFACE_STYLE_USAGE( .BOTH., #140 );
#84 = FACE_OUTER_BOUND( '', #141, .T. );
#85 = FACE_OUTER_BOUND( '', #142, .T. );
#86 = TOROIDAL_SURFACE( '', #143, 42.5000000000000, 2.50000000000000 );
#87 = SURFACE_STYLE_USAGE( .BOTH., #144 );
#88 = FACE_OUTER_BOUND( '', #145, .T. );
#89 = FACE_OUTER_BOUND( '', #146, .T. );
#90 = CYLINDRICAL_SURFACE( '', #147, 55.0000000000000 );
#91 = SURFACE_STYLE_USAGE( .BOTH., #148 );
#92 = FACE_OUTER_BOUND( '', #149, .T. );
#93 = FACE_OUTER_BOUND( '', #150, .T. );
#94 = CYLINDRICAL_SURFACE( '', #151, 45.0000000000000 );
#95 = SURFACE_STYLE_USAGE( .BOTH., #152 );
#96 = FACE_OUTER_BOUND( '', #153, .T. );
#97 = PLANE( '', #154 );
#98 = SURFACE_STYLE_USAGE( .BOTH., #155 );
#99 = FACE_OUTER_BOUND( '', #156, .T. );
#100 = FACE_OUTER_BOUND( '', #157, .T. );
#101 = TOROIDAL_SURFACE( '', #158, 70.4000000000000, 9.60000000000000 );
#102 = SURFACE_STYLE_USAGE( .BOTH., #159 );
#103 = FACE_OUTER_BOUND( '', #160, .T. );
#104 = FACE_BOUND( '', #161, .T. );
#105 = PLANE( '', #162 );
#106 = SURFACE_STYLE_USAGE( .BOTH., #163 );
#107 = FACE_OUTER_BOUND( '', #164, .T. );
#108 = FACE_BOUND( '', #165, .T. );
#109 = PLANE( '', #166 );
#110 = SURFACE_STYLE_USAGE( .BOTH., #167 );
#111 = FACE_OUTER_BOUND( '', #168, .T. );
#112 = FACE_OUTER_BOUND( '', #169, .T. );
#113 = CYLINDRICAL_SURFACE( '', #170, 80.0000000000000 );
#114 = SURFACE_STYLE_USAGE( .BOTH., #171 );
#115 = FACE_OUTER_BOUND( '', #172, .T. );
#116 = PLANE( '', #173 );
#117 = SURFACE_STYLE_USAGE( .BOTH., #174 );
#118 = FACE_OUTER_BOUND( '', #175, .T. );
#119 = FACE_OUTER_BOUND( '', #176, .T. );
#120 = CYLINDRICAL_SURFACE( '', #177, 70.5000000000000 );
#121 = SURFACE_STYLE_USAGE( .BOTH., #178 );
#122 = FACE_OUTER_BOUND( '', #179, .T. );
#123 = FACE_BOUND( '', #180, .T. );
#124 = PLANE( '', #181 );
#125 = SURFACE_STYLE_USAGE( .BOTH., #182 );
#126 = FACE_OUTER_BOUND( '', #183, .T. );
#127 = FACE_OUTER_BOUND( '', #184, .T. );
#128 = TOROIDAL_SURFACE( '', #185, 66.9750000000000, 3.52500000000000 );
#129 = PRODUCT_CONTEXT( '', #23, 'mechanical' );
#130 = PRODUCT_DEFINITION_FORMATION_WITH_SPECIFIED_SOURCE( ' ', 'NONE', #62, .NOT_KNOWN. );
#131 = CLOSED_SHELL( '', ( #47, #55, #53, #45, #39, #43, #49, #41, #37, #51, #61, #57, #59 ) );
#132 = CARTESIAN_POINT( '', ( 0.000000000000000, 0.000000000000000, 0.000000000000000 ) );
#133 = DIRECTION( '', ( 0.000000000000000, 0.000000000000000, 1.00000000000000 ) );
#134 = DIRECTION( '', ( 1.00000000000000, 0.000000000000000, 0.000000000000000 ) );
#135 =  ( LENGTH_UNIT(  )NAMED_UNIT( #71 )SI_UNIT( .MILLI., .METRE. ) );
#136 = SURFACE_SIDE_STYLE( '', ( #187 ) );
#137 = EDGE_LOOP( '', ( #188 ) );
#138 = EDGE_LOOP( '', ( #189 ) );
#139 = AXIS2_PLACEMENT_3D( '', #190, #191, #192 );
#140 = SURFACE_SIDE_STYLE( '', ( #193 ) );
#141 = EDGE_LOOP( '', ( #194 ) );
#142 = EDGE_LOOP( '', ( #195 ) );
#143 = AXIS2_PLACEMENT_3D( '', #196, #197, #198 );
#144 = SURFACE_SIDE_STYLE( '', ( #199 ) );
#145 = EDGE_LOOP( '', ( #200 ) );
#146 = EDGE_LOOP( '', ( #201 ) );
#147 = AXIS2_PLACEMENT_3D( '', #202, #203, #204 );
#148 = SURFACE_SIDE_STYLE( '', ( #205 ) );
#149 = EDGE_LOOP( '', ( #206 ) );
#150 = EDGE_LOOP( '', ( #207 ) );
#151 = AXIS2_PLACEMENT_3D( '', #208, #209, #210 );
#152 = SURFACE_SIDE_STYLE( '', ( #211 ) );
#153 = EDGE_LOOP( '', ( #212 ) );
#154 = AXIS2_PLACEMENT_3D( '', #213, #214, #215 );
#155 = SURFACE_SIDE_STYLE( '', ( #216 ) );
#156 = EDGE_LOOP( '', ( #217 ) );
#157 = EDGE_LOOP( '', ( #218 ) );
#158 = AXIS2_PLACEMENT_3D( '', #219, #220, #221 );
#159 = SURFACE_SIDE_STYLE( '', ( #222 ) );
#160 = EDGE_LOOP( '', ( #223 ) );
#161 = EDGE_LOOP( '', ( #224 ) );
#162 = AXIS2_PLACEMENT_3D( '', #225, #226, #227 );
#163 = SURFACE_SIDE_STYLE( '', ( #228 ) );
#164 = EDGE_LOOP( '', ( #229 ) );
#165 = EDGE_LOOP( '', ( #230 ) );
#166 = AXIS2_PLACEMENT_3D( '', #231, #232, #233 );
#167 = SURFACE_SIDE_STYLE( '', ( #234 ) );
#168 = EDGE_LOOP( '', ( #235 ) );
#169 = EDGE_LOOP( '', ( #236 ) );
#170 = AXIS2_PLACEMENT_3D( '', #237, #238, #239 );
#171 = SURFACE_SIDE_STYLE( '', ( #240 ) );
#172 = EDGE_LOOP( '', ( #241 ) );
#173 = AXIS2_PLACEMENT_3D( '', #242, #243, #244 );
#174 = SURFACE_SIDE_STYLE( '', ( #245 ) );
#175 = EDGE_LOOP( '', ( #246 ) );
#176 = EDGE_LOOP( '', ( #247 ) );
#177 = AXIS2_PLACEMENT_3D( '', #248, #249, #250 );
#178 = SURFACE_SIDE_STYLE( '', ( #251 ) );
#179 = EDGE_LOOP( '', ( #252 ) );
#180 = EDGE_LOOP( '', ( #253 ) );
#181 = AXIS2_PLACEMENT_3D( '', #254, #255, #256 );
#182 = SURFACE_SIDE_STYLE( '', ( #257 ) );
#183 = EDGE_LOOP( '', ( #258 ) );
#184 = EDGE_LOOP( '', ( #259 ) );
#185 = AXIS2_PLACEMENT_3D( '', #260, #261, #262 );
#187 = SURFACE_STYLE_FILL_AREA( #263 );
#188 = ORIENTED_EDGE( '', *, *, #264, .F. );
#189 = ORIENTED_EDGE( '', *, *, #265, .T. );
#190 = CARTESIAN_POINT( '', ( 23.1416666666667, 0.000000000000000, 0.000000000000000 ) );
#191 = DIRECTION( '', ( 1.00000000000000, 0.000000000000000, -0.000000000000000 ) );
#192 = DIRECTION( '', ( -0.000000000000000, 0.000000000000000, -1.00000000000000 ) );
#193 = SURFACE_STYLE_FILL_AREA( #266 );
#194 = ORIENTED_EDGE( '', *, *, #267, .F. );
#195 = ORIENTED_EDGE( '', *, *, #268, .T. );
#196 = CARTESIAN_POINT( '', ( 24.1666666666667, 0.000000000000000, 0.000000000000000 ) );
#197 = DIRECTION( '', ( 1.00000000000000, 0.000000000000000, -0.000000000000000 ) );
#198 = DIRECTION( '', ( -0.000000000000000, 0.000000000000000, -1.00000000000000 ) );
#199 = SURFACE_STYLE_FILL_AREA( #269 );
#200 = ORIENTED_EDGE( '', *, *, #265, .F. );
#201 = ORIENTED_EDGE( '', *, *, #270, .T. );
#202 = CARTESIAN_POINT( '', ( 60.0000000000000, 0.000000000000000, 0.000000000000000 ) );
#203 = DIRECTION( '', ( -1.00000000000000, -0.000000000000000, 0.000000000000000 ) );
#204 = DIRECTION( '', ( -0.000000000000000, 0.000000000000000, -1.00000000000000 ) );
#205 = SURFACE_STYLE_FILL_AREA( #271 );
#206 = ORIENTED_EDGE( '', *, *, #272, .F. );
#207 = ORIENTED_EDGE( '', *, *, #267, .T. );
#208 = CARTESIAN_POINT( '', ( 60.0000000000000, 0.000000000000000, 0.000000000000000 ) );
#209 = DIRECTION( '', ( -1.00000000000000, -0.000000000000000, 0.000000000000000 ) );
#210 = DIRECTION( '', ( -0.000000000000000, 0.000000000000000, -1.00000000000000 ) );
#211 = SURFACE_STYLE_FILL_AREA( #273 );
#212 = ORIENTED_EDGE( '', *, *, #268, .F. );
#213 = CARTESIAN_POINT( '', ( 26.6666666666667, 0.000000000000000, 0.000000000000000 ) );
#214 = DIRECTION( '', ( 1.00000000000000, 0.000000000000000, -0.000000000000000 ) );
#215 = DIRECTION( '', ( -0.000000000000000, 0.000000000000000, -1.00000000000000 ) );
#216 = SURFACE_STYLE_FILL_AREA( #274 );
#217 = ORIENTED_EDGE( '', *, *, #275, .T. );
#218 = ORIENTED_EDGE( '', *, *, #276, .F. );
#219 = CARTESIAN_POINT( '', ( 50.4000000000000, 0.000000000000000, 0.000000000000000 ) );
#220 = DIRECTION( '', ( 1.00000000000000, 0.000000000000000, -0.000000000000000 ) );
#221 = DIRECTION( '', ( -0.000000000000000, 0.000000000000000, -1.00000000000000 ) );
#222 = SURFACE_STYLE_FILL_AREA( #277 );
#223 = ORIENTED_EDGE( '', *, *, #270, .F. );
#224 = ORIENTED_EDGE( '', *, *, #272, .T. );
#225 = CARTESIAN_POINT( '', ( 0.000000000000000, 45.0000000000000, 0.000000000000000 ) );
#226 = DIRECTION( '', ( 1.00000000000000, 0.000000000000000, -0.000000000000000 ) );
#227 = DIRECTION( '', ( -0.000000000000000, 0.000000000000000, -1.00000000000000 ) );
#228 = SURFACE_STYLE_FILL_AREA( #278 );
#229 = ORIENTED_EDGE( '', *, *, #279, .F. );
#230 = ORIENTED_EDGE( '', *, *, #264, .T. );
#231 = CARTESIAN_POINT( '', ( 26.6666666666667, 58.5250000000000, 0.000000000000000 ) );
#232 = DIRECTION( '', ( 1.00000000000000, 0.000000000000000, -0.000000000000000 ) );
#233 = DIRECTION( '', ( -0.000000000000000, 0.000000000000000, -1.00000000000000 ) );
#234 = SURFACE_STYLE_FILL_AREA( #280 );
#235 = ORIENTED_EDGE( '', *, *, #275, .F. );
#236 = ORIENTED_EDGE( '', *, *, #281, .T. );
#237 = CARTESIAN_POINT( '', ( 60.0000000000000, 0.000000000000000, 0.000000000000000 ) );
#238 = DIRECTION( '', ( -1.00000000000000, -0.000000000000000, 0.000000000000000 ) );
#239 = DIRECTION( '', ( -0.000000000000000, 0.000000000000000, -1.00000000000000 ) );
#240 = SURFACE_STYLE_FILL_AREA( #282 );
#241 = ORIENTED_EDGE( '', *, *, #276, .T. );
#242 = CARTESIAN_POINT( '', ( 60.0000000000000, 70.4000000000000, 0.000000000000000 ) );
#243 = DIRECTION( '', ( -1.00000000000000, 0.000000000000000, 0.000000000000000 ) );
#244 = DIRECTION( '', ( 0.000000000000000, 0.000000000000000, 1.00000000000000 ) );
#245 = SURFACE_STYLE_FILL_AREA( #283 );
#246 = ORIENTED_EDGE( '', *, *, #284, .F. );
#247 = ORIENTED_EDGE( '', *, *, #285, .T. );
#248 = CARTESIAN_POINT( '', ( 60.0000000000000, 0.000000000000000, 0.000000000000000 ) );
#249 = DIRECTION( '', ( -1.00000000000000, -0.000000000000000, 0.000000000000000 ) );
#250 = DIRECTION( '', ( -0.000000000000000, 0.000000000000000, -1.00000000000000 ) );
#251 = SURFACE_STYLE_FILL_AREA( #286 );
#252 = ORIENTED_EDGE( '', *, *, #281, .F. );
#253 = ORIENTED_EDGE( '', *, *, #284, .T. );
#254 = CARTESIAN_POINT( '', ( 10.0000000000000, 70.5000000000000, 0.000000000000000 ) );
#255 = DIRECTION( '', ( 1.00000000000000, 0.000000000000000, -0.000000000000000 ) );
#256 = DIRECTION( '', ( -0.000000000000000, 0.000000000000000, -1.00000000000000 ) );
#257 = SURFACE_STYLE_FILL_AREA( #287 );
#258 = ORIENTED_EDGE( '', *, *, #285, .F. );
#259 = ORIENTED_EDGE( '', *, *, #279, .T. );
#260 = CARTESIAN_POINT( '', ( 23.1416666666666, 0.000000000000000, 0.000000000000000 ) );
#261 = DIRECTION( '', ( 1.00000000000000, 0.000000000000000, -0.000000000000000 ) );
#262 = DIRECTION( '', ( -0.000000000000000, 0.000000000000000, -1.00000000000000 ) );
#263 = FILL_AREA_STYLE( '', ( #288 ) );
#264 = EDGE_CURVE( '', #289, #289, #290, .T. );
#265 = EDGE_CURVE( '', #291, #291, #292, .T. );
#266 = FILL_AREA_STYLE( '', ( #293 ) );
#267 = EDGE_CURVE( '', #294, #294, #295, .T. );
#268 = EDGE_CURVE( '', #296, #296, #297, .T. );
#269 = FILL_AREA_STYLE( '', ( #298 ) );
#270 = EDGE_CURVE( '', #299, #299, #300, .T. );
#271 = FILL_AREA_STYLE( '', ( #301 ) );
#272 = EDGE_CURVE( '', #302, #302, #303, .T. );
#273 = FILL_AREA_STYLE( '', ( #304 ) );
#274 = FILL_AREA_STYLE( '', ( #305 ) );
#275 = EDGE_CURVE( '', #306, #306, #307, .T. );
#276 = EDGE_CURVE( '', #308, #308, #309, .T. );
#277 = FILL_AREA_STYLE( '', ( #310 ) );
#278 = FILL_AREA_STYLE( '', ( #311 ) );
#279 = EDGE_CURVE( '', #312, #312, #313, .T. );
#280 = FILL_AREA_STYLE( '', ( #314 ) );
#281 = EDGE_CURVE( '', #315, #315, #316, .T. );
#282 = FILL_AREA_STYLE( '', ( #317 ) );
#283 = FILL_AREA_STYLE( '', ( #318 ) );
#284 = EDGE_CURVE( '', #319, #319, #320, .T. );
#285 = EDGE_CURVE( '', #321, #321, #322, .T. );
#286 = FILL_AREA_STYLE( '', ( #323 ) );
#287 = FILL_AREA_STYLE( '', ( #324 ) );
#288 = FILL_AREA_STYLE_COLOUR( '', #325 );
#289 = VERTEX_POINT( '', #326 );
#290 = CIRCLE( '', #327, 58.5250000000000 );
#291 = VERTEX_POINT( '', #328 );
#292 = CIRCLE( '', #329, 55.0000000000000 );
#293 = FILL_AREA_STYLE_COLOUR( '', #330 );
#294 = VERTEX_POINT( '', #331 );
#295 = CIRCLE( '', #332, 45.0000000000000 );
#296 = VERTEX_POINT( '', #333 );
#297 = CIRCLE( '', #334, 42.5000000000000 );
#298 = FILL_AREA_STYLE_COLOUR( '', #335 );
#299 = VERTEX_POINT( '', #336 );
#300 = CIRCLE( '', #337, 55.0000000000000 );
#301 = FILL_AREA_STYLE_COLOUR( '', #338 );
#302 = VERTEX_POINT( '', #339 );
#303 = CIRCLE( '', #340, 45.0000000000000 );
#304 = FILL_AREA_STYLE_COLOUR( '', #341 );
#305 = FILL_AREA_STYLE_COLOUR( '', #342 );
#306 = VERTEX_POINT( '', #343 );
#307 = CIRCLE( '', #344, 80.0000000000000 );
#308 = VERTEX_POINT( '', #345 );
#309 = CIRCLE( '', #346, 70.4000000000000 );
#310 = FILL_AREA_STYLE_COLOUR( '', #347 );
#311 = FILL_AREA_STYLE_COLOUR( '', #348 );
#312 = VERTEX_POINT( '', #349 );
#313 = CIRCLE( '', #350, 66.9750000000000 );
#314 = FILL_AREA_STYLE_COLOUR( '', #351 );
#315 = VERTEX_POINT( '', #352 );
#316 = CIRCLE( '', #353, 80.0000000000000 );
#317 = FILL_AREA_STYLE_COLOUR( '', #354 );
#318 = FILL_AREA_STYLE_COLOUR( '', #355 );
#319 = VERTEX_POINT( '', #356 );
#320 = CIRCLE( '', #357, 70.5000000000000 );
#321 = VERTEX_POINT( '', #358 );
#322 = CIRCLE( '', #359, 70.5000000000000 );
#323 = FILL_AREA_STYLE_COLOUR( '', #360 );
#324 = FILL_AREA_STYLE_COLOUR( '', #361 );
#325 = COLOUR_RGB( '', 0.188235297800000, 0.176470592600000, 0.176470592600000 );
#326 = CARTESIAN_POINT( '', ( 26.6666666666667, 0.000000000000000, -58.5250000000000 ) );
#327 = AXIS2_PLACEMENT_3D( '', #362, #363, #364 );
#328 = CARTESIAN_POINT( '', ( 23.1416666666667, 0.000000000000000, -55.0000000000000 ) );
#329 = AXIS2_PLACEMENT_3D( '', #365, #366, #367 );
#330 = COLOUR_RGB( '', 0.188235297800000, 0.176470592600000, 0.176470592600000 );
#331 = CARTESIAN_POINT( '', ( 24.1666666666667, 0.000000000000000, -45.0000000000000 ) );
#332 = AXIS2_PLACEMENT_3D( '', #368, #369, #370 );
#333 = CARTESIAN_POINT( '', ( 26.6666666666667, 0.000000000000000, -42.5000000000000 ) );
#334 = AXIS2_PLACEMENT_3D( '', #371, #372, #373 );
#335 = COLOUR_RGB( '', 0.188235297800000, 0.176470592600000, 0.176470592600000 );
#336 = CARTESIAN_POINT( '', ( 0.000000000000000, 0.000000000000000, -55.0000000000000 ) );
#337 = AXIS2_PLACEMENT_3D( '', #374, #375, #376 );
#338 = COLOUR_RGB( '', 0.188235297800000, 0.176470592600000, 0.176470592600000 );
#339 = CARTESIAN_POINT( '', ( 0.000000000000000, 0.000000000000000, -45.0000000000000 ) );
#340 = AXIS2_PLACEMENT_3D( '', #377, #378, #379 );
#341 = COLOUR_RGB( '', 0.188235297800000, 0.176470592600000, 0.176470592600000 );
#342 = COLOUR_RGB( '', 0.188235297800000, 0.176470592600000, 0.176470592600000 );
#343 = CARTESIAN_POINT( '', ( 50.4000000000000, 0.000000000000000, -80.0000000000000 ) );
#344 = AXIS2_PLACEMENT_3D( '', #380, #381, #382 );
#345 = CARTESIAN_POINT( '', ( 60.0000000000000, 0.000000000000000, -70.4000000000000 ) );
#346 = AXIS2_PLACEMENT_3D( '', #383, #384, #385 );
#347 = COLOUR_RGB( '', 0.188235297800000, 0.176470592600000, 0.176470592600000 );
#348 = COLOUR_RGB( '', 0.188235297800000, 0.176470592600000, 0.176470592600000 );
#349 = CARTESIAN_POINT( '', ( 26.6666666666667, 0.000000000000000, -66.9750000000000 ) );
#350 = AXIS2_PLACEMENT_3D( '', #386, #387, #388 );
#351 = COLOUR_RGB( '', 0.188235297800000, 0.176470592600000, 0.176470592600000 );
#352 = CARTESIAN_POINT( '', ( 10.0000000000000, 0.000000000000000, -80.0000000000000 ) );
#353 = AXIS2_PLACEMENT_3D( '', #389, #390, #391 );
#354 = COLOUR_RGB( '', 0.188235297800000, 0.176470592600000, 0.176470592600000 );
#355 = COLOUR_RGB( '', 0.188235297800000, 0.176470592600000, 0.176470592600000 );
#356 = CARTESIAN_POINT( '', ( 10.0000000000000, 0.000000000000000, -70.5000000000000 ) );
#357 = AXIS2_PLACEMENT_3D( '', #392, #393, #394 );
#358 = CARTESIAN_POINT( '', ( 23.1416666666667, 0.000000000000000, -70.5000000000000 ) );
#359 = AXIS2_PLACEMENT_3D( '', #395, #396, #397 );
#360 = COLOUR_RGB( '', 0.188235297800000, 0.176470592600000, 0.176470592600000 );
#361 = COLOUR_RGB( '', 0.188235297800000, 0.176470592600000, 0.176470592600000 );
#362 = CARTESIAN_POINT( '', ( 26.6666666666667, 0.000000000000000, 0.000000000000000 ) );
#363 = DIRECTION( '', ( 1.00000000000000, 0.000000000000000, -0.000000000000000 ) );
#364 = DIRECTION( '', ( -0.000000000000000, 0.000000000000000, -1.00000000000000 ) );
#365 = CARTESIAN_POINT( '', ( 23.1416666666667, 0.000000000000000, 0.000000000000000 ) );
#366 = DIRECTION( '', ( 1.00000000000000, 0.000000000000000, -0.000000000000000 ) );
#367 = DIRECTION( '', ( -0.000000000000000, 0.000000000000000, -1.00000000000000 ) );
#368 = CARTESIAN_POINT( '', ( 24.1666666666667, 0.000000000000000, 0.000000000000000 ) );
#369 = DIRECTION( '', ( 1.00000000000000, 0.000000000000000, -0.000000000000000 ) );
#370 = DIRECTION( '', ( -0.000000000000000, 0.000000000000000, -1.00000000000000 ) );
#371 = CARTESIAN_POINT( '', ( 26.6666666666667, 0.000000000000000, 0.000000000000000 ) );
#372 = DIRECTION( '', ( 1.00000000000000, 0.000000000000000, -0.000000000000000 ) );
#373 = DIRECTION( '', ( -0.000000000000000, 0.000000000000000, -1.00000000000000 ) );
#374 = CARTESIAN_POINT( '', ( 0.000000000000000, 0.000000000000000, 0.000000000000000 ) );
#375 = DIRECTION( '', ( 1.00000000000000, 0.000000000000000, -0.000000000000000 ) );
#376 = DIRECTION( '', ( -0.000000000000000, 0.000000000000000, -1.00000000000000 ) );
#377 = CARTESIAN_POINT( '', ( 0.000000000000000, 0.000000000000000, 0.000000000000000 ) );
#378 = DIRECTION( '', ( 1.00000000000000, 0.000000000000000, -0.000000000000000 ) );
#379 = DIRECTION( '', ( -0.000000000000000, 0.000000000000000, -1.00000000000000 ) );
#380 = CARTESIAN_POINT( '', ( 50.4000000000000, 0.000000000000000, 0.000000000000000 ) );
#381 = DIRECTION( '', ( 1.00000000000000, 0.000000000000000, -0.000000000000000 ) );
#382 = DIRECTION( '', ( -0.000000000000000, 0.000000000000000, -1.00000000000000 ) );
#383 = CARTESIAN_POINT( '', ( 60.0000000000000, 0.000000000000000, 0.000000000000000 ) );
#384 = DIRECTION( '', ( 1.00000000000000, 0.000000000000000, -0.000000000000000 ) );
#385 = DIRECTION( '', ( -0.000000000000000, 0.000000000000000, -1.00000000000000 ) );
#386 = CARTESIAN_POINT( '', ( 26.6666666666667, 0.000000000000000, 0.000000000000000 ) );
#387 = DIRECTION( '', ( 1.00000000000000, 0.000000000000000, -0.000000000000000 ) );
#388 = DIRECTION( '', ( -0.000000000000000, 0.000000000000000, -1.00000000000000 ) );
#389 = CARTESIAN_POINT( '', ( 10.0000000000000, 0.000000000000000, 0.000000000000000 ) );
#390 = DIRECTION( '', ( 1.00000000000000, 0.000000000000000, -0.000000000000000 ) );
#391 = DIRECTION( '', ( -0.000000000000000, 0.000000000000000, -1.00000000000000 ) );
#392 = CARTESIAN_POINT( '', ( 10.0000000000000, 0.000000000000000, 0.000000000000000 ) );
#393 = DIRECTION( '', ( 1.00000000000000, 0.000000000000000, -0.000000000000000 ) );
#394 = DIRECTION( '', ( -0.000000000000000, 0.000000000000000, -1.00000000000000 ) );
#395 = CARTESIAN_POINT( '', ( 23.1416666666667, 0.000000000000000, 0.000000000000000 ) );
#396 = DIRECTION( '', ( 1.00000000000000, 0.000000000000000, -0.000000000000000 ) );
#397 = DIRECTION( '', ( -0.000000000000000, 0.000000000000000, -1.00000000000000 ) );
ENDSEC;
END-ISO-10303-21;
