ISO-10303-21;
HEADER;
/* Generated by software containing ST-Developer
 * from STEP Tools, Inc. (www.steptools.com) 
 */

FILE_DESCRIPTION(
/* description */ (''),
/* implementation_level */ '2;1');

FILE_NAME(
/* name */ 
'Q:\\Ric010\\FF7\\FIPlastiCAD\\FIP\\Lavoro\\PVC Fittings\\PVC Fittings
 STEP\\JFV\\JFV012.ipt.stp',
/* time_stamp */ '2013-10-01T14:44:14+02:00',
/* author */ ('bfaro'),
/* organization */ (''),
/* preprocessor_version */ 'ST-DEVELOPER v15.2',
/* originating_system */ 'Autodesk Inventor 2014',
/* authorisation */ '');

FILE_SCHEMA (('AUTOMOTIVE_DESIGN { 1 0 10303 214 3 1 1 }'));
ENDSEC;

DATA;
#10=SHAPE_REPRESENTATION_RELATIONSHIP('SRR','None',#384,#11);
#11=ADVANCED_BREP_SHAPE_REPRESENTATION($,(#233),#375);
#12=LINE($,#323,#36);
#13=LINE($,#325,#37);
#14=LINE($,#327,#38);
#15=LINE($,#329,#39);
#16=LINE($,#331,#40);
#17=LINE($,#333,#41);
#18=LINE($,#335,#42);
#19=LINE($,#336,#43);
#20=LINE($,#343,#44);
#21=LINE($,#345,#45);
#22=LINE($,#346,#46);
#23=LINE($,#349,#47);
#24=LINE($,#350,#48);
#25=LINE($,#353,#49);
#26=LINE($,#354,#50);
#27=LINE($,#357,#51);
#28=LINE($,#358,#52);
#29=LINE($,#361,#53);
#30=LINE($,#362,#54);
#31=LINE($,#365,#55);
#32=LINE($,#366,#56);
#33=LINE($,#369,#57);
#34=LINE($,#370,#58);
#35=LINE($,#372,#59);
#36=VECTOR($,#264,11.5979797464467);
#37=VECTOR($,#265,11.5979797464467);
#38=VECTOR($,#266,11.5979797464467);
#39=VECTOR($,#267,11.5979797464467);
#40=VECTOR($,#268,11.5979797464467);
#41=VECTOR($,#269,11.5979797464467);
#42=VECTOR($,#270,11.5979797464467);
#43=VECTOR($,#271,11.5979797464467);
#44=VECTOR($,#280,10.);
#45=VECTOR($,#281,11.5979797464467);
#46=VECTOR($,#282,10.);
#47=VECTOR($,#285,11.5979797464467);
#48=VECTOR($,#286,10.);
#49=VECTOR($,#289,11.5979797464467);
#50=VECTOR($,#290,10.);
#51=VECTOR($,#293,11.5979797464467);
#52=VECTOR($,#294,10.);
#53=VECTOR($,#297,11.5979797464467);
#54=VECTOR($,#298,10.);
#55=VECTOR($,#301,11.5979797464467);
#56=VECTOR($,#302,10.);
#57=VECTOR($,#305,11.5979797464467);
#58=VECTOR($,#306,10.);
#59=VECTOR($,#309,11.5979797464467);
#60=PLANE($,#238);
#61=PLANE($,#242);
#62=PLANE($,#243);
#63=PLANE($,#244);
#64=PLANE($,#245);
#65=PLANE($,#246);
#66=PLANE($,#247);
#67=PLANE($,#248);
#68=PLANE($,#249);
#69=PLANE($,#250);
#70=PLANE($,#251);
#71=FACE_BOUND($,#90,.T.);
#72=FACE_BOUND($,#92,.T.);
#73=FACE_BOUND($,#94,.T.);
#74=FACE_BOUND($,#95,.T.);
#75=FACE_BOUND($,#96,.T.);
#76=FACE_BOUND($,#105,.T.);
#77=FACE_BOUND($,#106,.T.);
#78=FACE_OUTER_BOUND($,#89,.T.);
#79=FACE_OUTER_BOUND($,#91,.T.);
#80=FACE_OUTER_BOUND($,#93,.T.);
#81=FACE_OUTER_BOUND($,#97,.T.);
#82=FACE_OUTER_BOUND($,#98,.T.);
#83=FACE_OUTER_BOUND($,#99,.T.);
#84=FACE_OUTER_BOUND($,#100,.T.);
#85=FACE_OUTER_BOUND($,#101,.T.);
#86=FACE_OUTER_BOUND($,#102,.T.);
#87=FACE_OUTER_BOUND($,#103,.T.);
#88=FACE_OUTER_BOUND($,#104,.T.);
#89=EDGE_LOOP($,(#159));
#90=EDGE_LOOP($,(#160));
#91=EDGE_LOOP($,(#161));
#92=EDGE_LOOP($,(#162,#163,#164,#165,#166,#167,#168,#169));
#93=EDGE_LOOP($,(#170));
#94=EDGE_LOOP($,(#171));
#95=EDGE_LOOP($,(#172));
#96=EDGE_LOOP($,(#173));
#97=EDGE_LOOP($,(#174,#175,#176,#177));
#98=EDGE_LOOP($,(#178,#179,#180,#181));
#99=EDGE_LOOP($,(#182,#183,#184,#185));
#100=EDGE_LOOP($,(#186,#187,#188,#189));
#101=EDGE_LOOP($,(#190,#191,#192,#193));
#102=EDGE_LOOP($,(#194,#195,#196,#197));
#103=EDGE_LOOP($,(#198,#199,#200,#201));
#104=EDGE_LOOP($,(#202,#203,#204,#205));
#105=EDGE_LOOP($,(#206));
#106=EDGE_LOOP($,(#207,#208,#209,#210,#211,#212,#213,#214));
#107=CIRCLE($,#236,9.3155);
#108=CIRCLE($,#237,9.3155);
#109=CIRCLE($,#239,19.);
#110=CIRCLE($,#241,19.);
#111=VERTEX_POINT($,#314);
#112=VERTEX_POINT($,#316);
#113=VERTEX_POINT($,#319);
#114=VERTEX_POINT($,#321);
#115=VERTEX_POINT($,#322);
#116=VERTEX_POINT($,#324);
#117=VERTEX_POINT($,#326);
#118=VERTEX_POINT($,#328);
#119=VERTEX_POINT($,#330);
#120=VERTEX_POINT($,#332);
#121=VERTEX_POINT($,#334);
#122=VERTEX_POINT($,#338);
#123=VERTEX_POINT($,#342);
#124=VERTEX_POINT($,#344);
#125=VERTEX_POINT($,#348);
#126=VERTEX_POINT($,#352);
#127=VERTEX_POINT($,#356);
#128=VERTEX_POINT($,#360);
#129=VERTEX_POINT($,#364);
#130=VERTEX_POINT($,#368);
#131=EDGE_CURVE($,#111,#111,#107,.T.);
#132=EDGE_CURVE($,#112,#112,#108,.T.);
#133=EDGE_CURVE($,#113,#113,#109,.T.);
#134=EDGE_CURVE($,#114,#115,#12,.T.);
#135=EDGE_CURVE($,#115,#116,#13,.T.);
#136=EDGE_CURVE($,#116,#117,#14,.T.);
#137=EDGE_CURVE($,#117,#118,#15,.T.);
#138=EDGE_CURVE($,#118,#119,#16,.T.);
#139=EDGE_CURVE($,#119,#120,#17,.T.);
#140=EDGE_CURVE($,#120,#121,#18,.T.);
#141=EDGE_CURVE($,#121,#114,#19,.T.);
#142=EDGE_CURVE($,#122,#122,#110,.T.);
#143=EDGE_CURVE($,#114,#123,#20,.T.);
#144=EDGE_CURVE($,#124,#123,#21,.T.);
#145=EDGE_CURVE($,#115,#124,#22,.T.);
#146=EDGE_CURVE($,#125,#124,#23,.T.);
#147=EDGE_CURVE($,#116,#125,#24,.T.);
#148=EDGE_CURVE($,#126,#125,#25,.T.);
#149=EDGE_CURVE($,#117,#126,#26,.T.);
#150=EDGE_CURVE($,#127,#126,#27,.T.);
#151=EDGE_CURVE($,#118,#127,#28,.T.);
#152=EDGE_CURVE($,#128,#127,#29,.T.);
#153=EDGE_CURVE($,#119,#128,#30,.T.);
#154=EDGE_CURVE($,#129,#128,#31,.T.);
#155=EDGE_CURVE($,#120,#129,#32,.T.);
#156=EDGE_CURVE($,#130,#129,#33,.T.);
#157=EDGE_CURVE($,#121,#130,#34,.T.);
#158=EDGE_CURVE($,#123,#130,#35,.T.);
#159=ORIENTED_EDGE($,*,*,#131,.F.);
#160=ORIENTED_EDGE($,*,*,#132,.F.);
#161=ORIENTED_EDGE($,*,*,#133,.T.);
#162=ORIENTED_EDGE($,*,*,#134,.T.);
#163=ORIENTED_EDGE($,*,*,#135,.T.);
#164=ORIENTED_EDGE($,*,*,#136,.T.);
#165=ORIENTED_EDGE($,*,*,#137,.T.);
#166=ORIENTED_EDGE($,*,*,#138,.T.);
#167=ORIENTED_EDGE($,*,*,#139,.T.);
#168=ORIENTED_EDGE($,*,*,#140,.T.);
#169=ORIENTED_EDGE($,*,*,#141,.T.);
#170=ORIENTED_EDGE($,*,*,#142,.F.);
#171=ORIENTED_EDGE($,*,*,#133,.F.);
#172=ORIENTED_EDGE($,*,*,#131,.T.);
#173=ORIENTED_EDGE($,*,*,#142,.T.);
#174=ORIENTED_EDGE($,*,*,#134,.F.);
#175=ORIENTED_EDGE($,*,*,#143,.T.);
#176=ORIENTED_EDGE($,*,*,#144,.F.);
#177=ORIENTED_EDGE($,*,*,#145,.F.);
#178=ORIENTED_EDGE($,*,*,#135,.F.);
#179=ORIENTED_EDGE($,*,*,#145,.T.);
#180=ORIENTED_EDGE($,*,*,#146,.F.);
#181=ORIENTED_EDGE($,*,*,#147,.F.);
#182=ORIENTED_EDGE($,*,*,#136,.F.);
#183=ORIENTED_EDGE($,*,*,#147,.T.);
#184=ORIENTED_EDGE($,*,*,#148,.F.);
#185=ORIENTED_EDGE($,*,*,#149,.F.);
#186=ORIENTED_EDGE($,*,*,#137,.F.);
#187=ORIENTED_EDGE($,*,*,#149,.T.);
#188=ORIENTED_EDGE($,*,*,#150,.F.);
#189=ORIENTED_EDGE($,*,*,#151,.F.);
#190=ORIENTED_EDGE($,*,*,#138,.F.);
#191=ORIENTED_EDGE($,*,*,#151,.T.);
#192=ORIENTED_EDGE($,*,*,#152,.F.);
#193=ORIENTED_EDGE($,*,*,#153,.F.);
#194=ORIENTED_EDGE($,*,*,#139,.F.);
#195=ORIENTED_EDGE($,*,*,#153,.T.);
#196=ORIENTED_EDGE($,*,*,#154,.F.);
#197=ORIENTED_EDGE($,*,*,#155,.F.);
#198=ORIENTED_EDGE($,*,*,#140,.F.);
#199=ORIENTED_EDGE($,*,*,#155,.T.);
#200=ORIENTED_EDGE($,*,*,#156,.F.);
#201=ORIENTED_EDGE($,*,*,#157,.F.);
#202=ORIENTED_EDGE($,*,*,#141,.F.);
#203=ORIENTED_EDGE($,*,*,#157,.T.);
#204=ORIENTED_EDGE($,*,*,#158,.F.);
#205=ORIENTED_EDGE($,*,*,#143,.F.);
#206=ORIENTED_EDGE($,*,*,#132,.T.);
#207=ORIENTED_EDGE($,*,*,#158,.T.);
#208=ORIENTED_EDGE($,*,*,#156,.T.);
#209=ORIENTED_EDGE($,*,*,#154,.T.);
#210=ORIENTED_EDGE($,*,*,#152,.T.);
#211=ORIENTED_EDGE($,*,*,#150,.T.);
#212=ORIENTED_EDGE($,*,*,#148,.T.);
#213=ORIENTED_EDGE($,*,*,#146,.T.);
#214=ORIENTED_EDGE($,*,*,#144,.T.);
#215=CYLINDRICAL_SURFACE($,#235,9.3155);
#216=CYLINDRICAL_SURFACE($,#240,19.);
#217=STYLED_ITEM($,(#393),#219);
#218=STYLED_ITEM($,(#392),#233);
#219=ADVANCED_FACE($,(#78,#71),#215,.F.);
#220=ADVANCED_FACE($,(#79,#72),#60,.T.);
#221=ADVANCED_FACE($,(#80,#73),#216,.T.);
#222=ADVANCED_FACE($,(#74,#75),#61,.F.);
#223=ADVANCED_FACE($,(#81),#62,.T.);
#224=ADVANCED_FACE($,(#82),#63,.T.);
#225=ADVANCED_FACE($,(#83),#64,.T.);
#226=ADVANCED_FACE($,(#84),#65,.T.);
#227=ADVANCED_FACE($,(#85),#66,.T.);
#228=ADVANCED_FACE($,(#86),#67,.T.);
#229=ADVANCED_FACE($,(#87),#68,.T.);
#230=ADVANCED_FACE($,(#88),#69,.T.);
#231=ADVANCED_FACE($,(#76,#77),#70,.T.);
#232=CLOSED_SHELL($,(#219,#220,#221,#222,#223,#224,#225,#226,#227,#228,
#229,#230,#231));
#233=MANIFOLD_SOLID_BREP('Solido1',#232);
#234=AXIS2_PLACEMENT_3D('placement',#312,#252,#253);
#235=AXIS2_PLACEMENT_3D($,#313,#254,#255);
#236=AXIS2_PLACEMENT_3D($,#315,#256,#257);
#237=AXIS2_PLACEMENT_3D($,#317,#258,#259);
#238=AXIS2_PLACEMENT_3D($,#318,#260,#261);
#239=AXIS2_PLACEMENT_3D($,#320,#262,#263);
#240=AXIS2_PLACEMENT_3D($,#337,#272,#273);
#241=AXIS2_PLACEMENT_3D($,#339,#274,#275);
#242=AXIS2_PLACEMENT_3D($,#340,#276,#277);
#243=AXIS2_PLACEMENT_3D($,#341,#278,#279);
#244=AXIS2_PLACEMENT_3D($,#347,#283,#284);
#245=AXIS2_PLACEMENT_3D($,#351,#287,#288);
#246=AXIS2_PLACEMENT_3D($,#355,#291,#292);
#247=AXIS2_PLACEMENT_3D($,#359,#295,#296);
#248=AXIS2_PLACEMENT_3D($,#363,#299,#300);
#249=AXIS2_PLACEMENT_3D($,#367,#303,#304);
#250=AXIS2_PLACEMENT_3D($,#371,#307,#308);
#251=AXIS2_PLACEMENT_3D($,#373,#310,#311);
#252=DIRECTION('axis',(0.,0.,1.));
#253=DIRECTION('refdir',(1.,0.,0.));
#254=DIRECTION('center_axis',(-1.,0.,0.));
#255=DIRECTION('ref_axis',(0.,0.,1.));
#256=DIRECTION('center_axis',(1.,0.,0.));
#257=DIRECTION('ref_axis',(0.,0.,1.));
#258=DIRECTION('center_axis',(-1.,0.,0.));
#259=DIRECTION('ref_axis',(0.,0.,1.));
#260=DIRECTION('center_axis',(1.,0.,0.));
#261=DIRECTION('ref_axis',(0.,0.,-1.));
#262=DIRECTION('center_axis',(1.,0.,0.));
#263=DIRECTION('ref_axis',(0.,0.,-1.));
#264=DIRECTION($,(0.,0.38268343236509,-0.923879532511287));
#265=DIRECTION($,(0.,-0.38268343236509,-0.923879532511287));
#266=DIRECTION($,(0.,-0.923879532511287,-0.38268343236509));
#267=DIRECTION($,(0.,-0.923879532511287,0.38268343236509));
#268=DIRECTION($,(0.,-0.38268343236509,0.923879532511287));
#269=DIRECTION($,(0.,0.38268343236509,0.923879532511287));
#270=DIRECTION($,(0.,0.923879532511287,0.38268343236509));
#271=DIRECTION($,(0.,0.923879532511287,-0.38268343236509));
#272=DIRECTION('center_axis',(-1.,0.,0.));
#273=DIRECTION('ref_axis',(0.,0.,-1.));
#274=DIRECTION('center_axis',(-1.,0.,0.));
#275=DIRECTION('ref_axis',(0.,0.,-1.));
#276=DIRECTION('center_axis',(1.,0.,0.));
#277=DIRECTION('ref_axis',(0.,0.,-1.));
#278=DIRECTION('center_axis',(0.,0.923879532511287,0.38268343236509));
#279=DIRECTION('ref_axis',(0.,-0.38268343236509,0.923879532511287));
#280=DIRECTION($,(1.,0.,0.));
#281=DIRECTION($,(0.,-0.38268343236509,0.923879532511287));
#282=DIRECTION($,(1.,0.,0.));
#283=DIRECTION('center_axis',(0.,0.923879532511287,-0.38268343236509));
#284=DIRECTION('ref_axis',(0.,0.38268343236509,0.923879532511287));
#285=DIRECTION($,(0.,0.38268343236509,0.923879532511287));
#286=DIRECTION($,(1.,0.,0.));
#287=DIRECTION('center_axis',(0.,0.38268343236509,-0.923879532511287));
#288=DIRECTION('ref_axis',(0.,0.923879532511287,0.38268343236509));
#289=DIRECTION($,(0.,0.923879532511287,0.38268343236509));
#290=DIRECTION($,(1.,0.,0.));
#291=DIRECTION('center_axis',(0.,-0.38268343236509,-0.923879532511287));
#292=DIRECTION('ref_axis',(0.,0.923879532511287,-0.38268343236509));
#293=DIRECTION($,(0.,0.923879532511287,-0.38268343236509));
#294=DIRECTION($,(1.,0.,0.));
#295=DIRECTION('center_axis',(0.,-0.923879532511287,-0.38268343236509));
#296=DIRECTION('ref_axis',(0.,0.38268343236509,-0.923879532511287));
#297=DIRECTION($,(0.,0.38268343236509,-0.923879532511287));
#298=DIRECTION($,(1.,0.,0.));
#299=DIRECTION('center_axis',(0.,-0.923879532511287,0.38268343236509));
#300=DIRECTION('ref_axis',(0.,-0.38268343236509,-0.923879532511287));
#301=DIRECTION($,(0.,-0.38268343236509,-0.923879532511287));
#302=DIRECTION($,(1.,0.,0.));
#303=DIRECTION('center_axis',(0.,-0.38268343236509,0.923879532511287));
#304=DIRECTION('ref_axis',(0.,-0.923879532511287,-0.38268343236509));
#305=DIRECTION($,(0.,-0.923879532511287,-0.38268343236509));
#306=DIRECTION($,(1.,0.,0.));
#307=DIRECTION('center_axis',(0.,0.38268343236509,0.923879532511287));
#308=DIRECTION('ref_axis',(0.,-0.923879532511287,0.38268343236509));
#309=DIRECTION($,(0.,-0.923879532511287,0.38268343236509));
#310=DIRECTION('center_axis',(1.,0.,0.));
#311=DIRECTION('ref_axis',(0.,0.,-1.));
#312=CARTESIAN_POINT('',(0.,0.,0.));
#313=CARTESIAN_POINT('Origin',(10.,0.,0.));
#314=CARTESIAN_POINT('',(-3.,1.14081972574572E-015,-9.3155));
#315=CARTESIAN_POINT('Origin',(-3.,0.,0.));
#316=CARTESIAN_POINT('',(10.,1.14081972574572E-015,-9.3155));
#317=CARTESIAN_POINT('Origin',(10.,0.,0.));
#318=CARTESIAN_POINT('Origin',(0.,-3.89551938464967E-016,-9.73006286794932E-016));
#319=CARTESIAN_POINT('',(0.,2.32682891837997E-015,19.));
#320=CARTESIAN_POINT('Origin',(0.,0.,0.));
#321=CARTESIAN_POINT('',(0.,10.7151361062225,10.7151361062225));
#322=CARTESIAN_POINT('',(0.,15.1534908040935,-4.28584353662176E-015));
#323=CARTESIAN_POINT($,(0.,10.7151361062225,10.7151361062225));
#324=CARTESIAN_POINT('',(0.,10.7151361062225,-10.7151361062225));
#325=CARTESIAN_POINT($,(0.,15.1534908040935,-4.28584353662176E-015));
#326=CARTESIAN_POINT('',(0.,-6.42444332779459E-016,-15.1534908040935));
#327=CARTESIAN_POINT($,(0.,10.7151361062225,-10.7151361062225));
#328=CARTESIAN_POINT('',(0.,-10.7151361062225,-10.7151361062225));
#329=CARTESIAN_POINT($,(0.,-6.42444332779459E-016,-15.1534908040935));
#330=CARTESIAN_POINT('',(0.,-15.1534908040935,-3.65743776842445E-015));
#331=CARTESIAN_POINT($,(0.,-10.7151361062225,-10.7151361062225));
#332=CARTESIAN_POINT('',(0.,-10.7151361062225,10.7151361062225));
#333=CARTESIAN_POINT($,(0.,-15.1534908040935,-3.65743776842445E-015));
#334=CARTESIAN_POINT('',(0.,-2.9817290007832E-016,15.1534908040935));
#335=CARTESIAN_POINT($,(0.,-10.7151361062225,10.7151361062225));
#336=CARTESIAN_POINT($,(0.,-2.9817290007832E-016,15.1534908040935));
#337=CARTESIAN_POINT('Origin',(0.,0.,0.));
#338=CARTESIAN_POINT('',(-3.,2.32682891837997E-015,19.));
#339=CARTESIAN_POINT('Origin',(-3.,0.,0.));
#340=CARTESIAN_POINT('Origin',(-3.,-3.89551938464967E-016,-9.73006286794932E-016));
#341=CARTESIAN_POINT('Origin',(0.,15.1534908040935,-4.44089209850063E-015));
#342=CARTESIAN_POINT('',(10.,10.7151361062225,10.7151361062225));
#343=CARTESIAN_POINT($,(0.,10.7151361062225,10.7151361062225));
#344=CARTESIAN_POINT('',(10.,15.1534908040935,-4.44089209850063E-015));
#345=CARTESIAN_POINT($,(10.,10.7151361062225,10.7151361062225));
#346=CARTESIAN_POINT($,(0.,15.1534908040935,-4.28584353662176E-015));
#347=CARTESIAN_POINT('Origin',(0.,10.7151361062225,-10.7151361062225));
#348=CARTESIAN_POINT('',(10.,10.7151361062225,-10.7151361062225));
#349=CARTESIAN_POINT($,(10.,15.1534908040935,-4.28584353662176E-015));
#350=CARTESIAN_POINT($,(0.,10.7151361062225,-10.7151361062225));
#351=CARTESIAN_POINT('Origin',(0.,0.,-15.1534908040935));
#352=CARTESIAN_POINT('',(10.,-6.42444332779459E-016,-15.1534908040935));
#353=CARTESIAN_POINT($,(10.,10.7151361062225,-10.7151361062225));
#354=CARTESIAN_POINT($,(0.,-6.42444332779459E-016,-15.1534908040935));
#355=CARTESIAN_POINT('Origin',(0.,-10.7151361062225,-10.7151361062225));
#356=CARTESIAN_POINT('',(10.,-10.7151361062225,-10.7151361062225));
#357=CARTESIAN_POINT($,(10.,-6.42444332779459E-016,-15.1534908040935));
#358=CARTESIAN_POINT($,(0.,-10.7151361062225,-10.7151361062225));
#359=CARTESIAN_POINT('Origin',(0.,-15.1534908040935,-2.22044604925031E-015));
#360=CARTESIAN_POINT('',(10.,-15.1534908040935,-4.44089209850063E-015));
#361=CARTESIAN_POINT($,(10.,-10.7151361062225,-10.7151361062225));
#362=CARTESIAN_POINT($,(0.,-15.1534908040935,-3.65743776842445E-015));
#363=CARTESIAN_POINT('Origin',(0.,-10.7151361062225,10.7151361062225));
#364=CARTESIAN_POINT('',(10.,-10.7151361062225,10.7151361062225));
#365=CARTESIAN_POINT($,(10.,-15.1534908040935,-3.65743776842445E-015));
#366=CARTESIAN_POINT($,(0.,-10.7151361062225,10.7151361062225));
#367=CARTESIAN_POINT('Origin',(0.,2.22044604925031E-015,15.1534908040935));
#368=CARTESIAN_POINT('',(10.,-2.9817290007832E-016,15.1534908040935));
#369=CARTESIAN_POINT($,(10.,-10.7151361062225,10.7151361062225));
#370=CARTESIAN_POINT($,(0.,-2.9817290007832E-016,15.1534908040935));
#371=CARTESIAN_POINT('Origin',(0.,10.7151361062225,10.7151361062225));
#372=CARTESIAN_POINT($,(10.,-2.9817290007832E-016,15.1534908040935));
#373=CARTESIAN_POINT('Origin',(10.,-1.79485411828723E-015,-2.15382494194468E-015));
#374=UNCERTAINTY_MEASURE_WITH_UNIT(LENGTH_MEASURE(0.01),#376,
'DISTANCE_ACCURACY_VALUE',
'Maximum model space distance between geometric entities at asserted c
onnectivities');
#375=(
GEOMETRIC_REPRESENTATION_CONTEXT(3)
GLOBAL_UNCERTAINTY_ASSIGNED_CONTEXT((#374))
GLOBAL_UNIT_ASSIGNED_CONTEXT((#376,#379,#377))
REPRESENTATION_CONTEXT('','3D')
);
#376=(
LENGTH_UNIT()
NAMED_UNIT(*)
SI_UNIT(.MILLI.,.METRE.)
);
#377=(
NAMED_UNIT(*)
SI_UNIT($,.STERADIAN.)
SOLID_ANGLE_UNIT()
);
#378=DIMENSIONAL_EXPONENTS(0.,0.,0.,0.,0.,0.,0.);
#379=(
CONVERSION_BASED_UNIT('degree',#381)
NAMED_UNIT(#378)
PLANE_ANGLE_UNIT()
);
#380=(
NAMED_UNIT(*)
PLANE_ANGLE_UNIT()
SI_UNIT($,.RADIAN.)
);
#381=PLANE_ANGLE_MEASURE_WITH_UNIT(PLANE_ANGLE_MEASURE(0.01745329252),#380);
#382=SHAPE_DEFINITION_REPRESENTATION(#383,#384);
#383=PRODUCT_DEFINITION_SHAPE('',$,#386);
#384=SHAPE_REPRESENTATION('',(#234),#375);
#385=PRODUCT_DEFINITION_CONTEXT('3D Mechanical Parts',#389,'design');
#386=PRODUCT_DEFINITION('JFV012','JFV012',#387,#385);
#387=PRODUCT_DEFINITION_FORMATION('',$,#391);
#388=APPLICATION_PROTOCOL_DEFINITION('international standard',
'automotive_design',2009,#389);
#389=APPLICATION_CONTEXT(
'Core Data for Automotive Mechanical Design Process');
#390=PRODUCT_CONTEXT('3D Mechanical Parts',#389,'mechanical');
#391=PRODUCT('JFV012','JFV012',$,(#390));
#392=PRESENTATION_STYLE_ASSIGNMENT((#394));
#393=PRESENTATION_STYLE_ASSIGNMENT((#395));
#394=SURFACE_STYLE_USAGE(.BOTH.,#396);
#395=SURFACE_STYLE_USAGE(.BOTH.,#397);
#396=SURFACE_SIDE_STYLE($,(#398));
#397=SURFACE_SIDE_STYLE($,(#399));
#398=SURFACE_STYLE_FILL_AREA(#400);
#399=SURFACE_STYLE_FILL_AREA(#401);
#400=FILL_AREA_STYLE($,(#402));
#401=FILL_AREA_STYLE($,(#403));
#402=FILL_AREA_STYLE_COLOUR($,#404);
#403=FILL_AREA_STYLE_COLOUR($,#405);
#404=COLOUR_RGB('',0.509803921568627,0.509803921568627,0.588235294117647);
#405=COLOUR_RGB('',1.,0.,0.);
ENDSEC;
END-ISO-10303-21;
