ISO-10303-21;
HEADER;
FILE_DESCRIPTION( ( '' ), '1' );
FILE_NAME( '//se01002/users/anro/AGRU_12705016007_PPH_grau_Rohr__5m_160X21_9__SDR7_4__ISO_S-3_2_10.stp', '2018-02-07T08:08:33', ( '' ), ( '' ), ' ', ' ', ' ' );
FILE_SCHEMA( ( 'automotive_design' ) );
ENDSEC;
DATA;
#1 = MECHANICAL_DESIGN_GEOMETRIC_PRESENTATION_REPRESENTATION( ' ', ( #10, #11, #12, #13, #14, #15, #16, #17, #18, #19, #20, #21, #22, #23, #24, #25, #26, #27, #28, #29, #30, #31, #32, #33, #34, #35, #36 ), #6 );
#2 = PRODUCT_DEFINITION_CONTEXT( '', #37, 'design' );
#3 = APPLICATION_PROTOCOL_DEFINITION( 'INTERNATIONAL STANDARD', 'automotive_design', 1994, #37 );
#4 = PRODUCT_CATEGORY_RELATIONSHIP( 'NONE', 'NONE', #38, #39 );
#5 = SHAPE_DEFINITION_REPRESENTATION( #40, #41 );
#6 =  ( GEOMETRIC_REPRESENTATION_CONTEXT( 3 )GLOBAL_UNCERTAINTY_ASSIGNED_CONTEXT( ( #44 ) )GLOBAL_UNIT_ASSIGNED_CONTEXT( ( #46, #47, #48 ) )REPRESENTATION_CONTEXT( 'NONE', 'WORKSPACE' ) );
#10 = STYLED_ITEM( '', ( #50 ), #51 );
#11 = STYLED_ITEM( '', ( #52 ), #53 );
#12 = STYLED_ITEM( '', ( #54 ), #55 );
#13 = STYLED_ITEM( '', ( #56 ), #57 );
#14 = STYLED_ITEM( '', ( #58 ), #59 );
#15 = STYLED_ITEM( '', ( #60 ), #61 );
#16 = STYLED_ITEM( '', ( #62 ), #63 );
#17 = STYLED_ITEM( '', ( #64 ), #65 );
#18 = STYLED_ITEM( '', ( #66 ), #67 );
#19 = STYLED_ITEM( '', ( #68 ), #69 );
#20 = STYLED_ITEM( '', ( #70 ), #71 );
#21 = STYLED_ITEM( '', ( #72 ), #73 );
#22 = STYLED_ITEM( '', ( #74 ), #75 );
#23 = STYLED_ITEM( '', ( #76 ), #77 );
#24 = STYLED_ITEM( '', ( #78 ), #79 );
#25 = STYLED_ITEM( '', ( #80 ), #81 );
#26 = STYLED_ITEM( '', ( #82 ), #83 );
#27 = STYLED_ITEM( '', ( #84 ), #85 );
#28 = STYLED_ITEM( '', ( #86 ), #87 );
#29 = STYLED_ITEM( '', ( #88 ), #89 );
#30 = STYLED_ITEM( '', ( #90 ), #91 );
#31 = STYLED_ITEM( '', ( #92 ), #93 );
#32 = STYLED_ITEM( '', ( #94 ), #95 );
#33 = STYLED_ITEM( '', ( #96 ), #97 );
#34 = STYLED_ITEM( '', ( #98 ), #99 );
#35 = STYLED_ITEM( '', ( #100 ), #101 );
#36 = STYLED_ITEM( '', ( #102 ), #103 );
#37 = APPLICATION_CONTEXT( ' ' );
#38 = PRODUCT_CATEGORY( 'part', 'NONE' );
#39 = PRODUCT_RELATED_PRODUCT_CATEGORY( 'detail', ' ', ( #104 ) );
#40 = PRODUCT_DEFINITION_SHAPE( 'NONE', 'NONE', #105 );
#41 = ADVANCED_BREP_SHAPE_REPRESENTATION( '1', ( #103, #106 ), #6 );
#44 = UNCERTAINTY_MEASURE_WITH_UNIT( LENGTH_MEASURE( 1.00000000000000E-006 ), #46, '', '' );
#46 =  ( CONVERSION_BASED_UNIT( 'MILLIMETRE', #109 )LENGTH_UNIT(  )NAMED_UNIT( #112 ) );
#47 =  ( NAMED_UNIT( #114 )PLANE_ANGLE_UNIT(  )SI_UNIT( $, .RADIAN. ) );
#48 =  ( NAMED_UNIT( #114 )SOLID_ANGLE_UNIT(  )SI_UNIT( $, .STERADIAN. ) );
#50 = PRESENTATION_STYLE_ASSIGNMENT( ( #120 ) );
#51 = ADVANCED_FACE( '', ( #121 ), #122, .T. );
#52 = PRESENTATION_STYLE_ASSIGNMENT( ( #123 ) );
#53 = VERTEX_POINT( '', #124 );
#54 = PRESENTATION_STYLE_ASSIGNMENT( ( #125 ) );
#55 = ADVANCED_FACE( '', ( #126, #127 ), #128, .F. );
#56 = PRESENTATION_STYLE_ASSIGNMENT( ( #129 ) );
#57 = VERTEX_POINT( '', #130 );
#58 = PRESENTATION_STYLE_ASSIGNMENT( ( #131 ) );
#59 = VERTEX_POINT( '', #132 );
#60 = PRESENTATION_STYLE_ASSIGNMENT( ( #133 ) );
#61 = VERTEX_POINT( '', #134 );
#62 = PRESENTATION_STYLE_ASSIGNMENT( ( #135 ) );
#63 = EDGE_CURVE( '', #81, #101, #136, .T. );
#64 = PRESENTATION_STYLE_ASSIGNMENT( ( #137 ) );
#65 = EDGE_CURVE( '', #53, #61, #138, .T. );
#66 = PRESENTATION_STYLE_ASSIGNMENT( ( #139 ) );
#67 = VERTEX_POINT( '', #140 );
#68 = PRESENTATION_STYLE_ASSIGNMENT( ( #141 ) );
#69 = EDGE_CURVE( '', #61, #67, #142, .T. );
#70 = PRESENTATION_STYLE_ASSIGNMENT( ( #143 ) );
#71 = EDGE_CURVE( '', #101, #59, #144, .T. );
#72 = PRESENTATION_STYLE_ASSIGNMENT( ( #145 ) );
#73 = EDGE_CURVE( '', #81, #83, #146, .T. );
#74 = PRESENTATION_STYLE_ASSIGNMENT( ( #147 ) );
#75 = ADVANCED_FACE( '', ( #148, #149 ), #150, .T. );
#76 = PRESENTATION_STYLE_ASSIGNMENT( ( #151 ) );
#77 = ADVANCED_FACE( '', ( #152 ), #153, .T. );
#78 = PRESENTATION_STYLE_ASSIGNMENT( ( #154 ) );
#79 = ADVANCED_FACE( '', ( #155 ), #156, .F. );
#80 = PRESENTATION_STYLE_ASSIGNMENT( ( #157 ) );
#81 = VERTEX_POINT( '', #158 );
#82 = PRESENTATION_STYLE_ASSIGNMENT( ( #159 ) );
#83 = VERTEX_POINT( '', #160 );
#84 = PRESENTATION_STYLE_ASSIGNMENT( ( #161 ) );
#85 = EDGE_CURVE( '', #59, #101, #162, .T. );
#86 = PRESENTATION_STYLE_ASSIGNMENT( ( #163 ) );
#87 = EDGE_CURVE( '', #57, #53, #164, .T. );
#88 = PRESENTATION_STYLE_ASSIGNMENT( ( #165 ) );
#89 = ADVANCED_FACE( '', ( #166 ), #167, .F. );
#90 = PRESENTATION_STYLE_ASSIGNMENT( ( #168 ) );
#91 = EDGE_CURVE( '', #67, #61, #169, .T. );
#92 = PRESENTATION_STYLE_ASSIGNMENT( ( #170 ) );
#93 = EDGE_CURVE( '', #83, #81, #171, .T. );
#94 = PRESENTATION_STYLE_ASSIGNMENT( ( #172 ) );
#95 = EDGE_CURVE( '', #53, #57, #173, .T. );
#96 = PRESENTATION_STYLE_ASSIGNMENT( ( #174 ) );
#97 = EDGE_CURVE( '', #67, #57, #175, .T. );
#98 = PRESENTATION_STYLE_ASSIGNMENT( ( #176 ) );
#99 = EDGE_CURVE( '', #59, #83, #177, .T. );
#100 = PRESENTATION_STYLE_ASSIGNMENT( ( #178 ) );
#101 = VERTEX_POINT( '', #179 );
#102 = PRESENTATION_STYLE_ASSIGNMENT( ( #180 ) );
#103 = MANIFOLD_SOLID_BREP( '1', #181 );
#104 = PRODUCT( '1', '1', 'PART-1-DESC', ( #182 ) );
#105 = PRODUCT_DEFINITION( 'NONE', 'NONE', #183, #2 );
#106 = AXIS2_PLACEMENT_3D( '', #184, #185, #186 );
#109 = LENGTH_MEASURE_WITH_UNIT( LENGTH_MEASURE( 1.00000000000000 ), #187 );
#112 = DIMENSIONAL_EXPONENTS( 1.00000000000000, 0.000000000000000, 0.000000000000000, 0.000000000000000, 0.000000000000000, 0.000000000000000, 0.000000000000000 );
#114 = DIMENSIONAL_EXPONENTS( 0.000000000000000, 0.000000000000000, 0.000000000000000, 0.000000000000000, 0.000000000000000, 0.000000000000000, 0.000000000000000 );
#120 = SURFACE_STYLE_USAGE( .BOTH., #188 );
#121 = FACE_OUTER_BOUND( '', #189, .T. );
#122 = CYLINDRICAL_SURFACE( '', #190, 80.0000000000000 );
#123 = POINT_STYLE( ' ', #191, POSITIVE_LENGTH_MEASURE( 1.00000000000000E-006 ), #192 );
#124 = CARTESIAN_POINT( '', ( 5000.00000000000, 7.11496291570801E-015, 58.1000000000000 ) );
#125 = SURFACE_STYLE_USAGE( .BOTH., #193 );
#126 = FACE_OUTER_BOUND( '', #194, .T. );
#127 = FACE_BOUND( '', #195, .T. );
#128 = PLANE( '', #196 );
#129 = POINT_STYLE( ' ', #197, POSITIVE_LENGTH_MEASURE( 1.00000000000000E-006 ), #198 );
#130 = CARTESIAN_POINT( '', ( 5000.00000000000, 0.000000000000000, -58.1000000000000 ) );
#131 = POINT_STYLE( ' ', #199, POSITIVE_LENGTH_MEASURE( 1.00000000000000E-006 ), #200 );
#132 = CARTESIAN_POINT( '', ( 5000.00000000000, 9.79685083057902E-015, 80.0000000000000 ) );
#133 = POINT_STYLE( ' ', #201, POSITIVE_LENGTH_MEASURE( 1.00000000000000E-006 ), #202 );
#134 = CARTESIAN_POINT( '', ( 0.000000000000000, 7.11496291570801E-015, 58.1000000000000 ) );
#135 = CURVE_STYLE( '', #203, POSITIVE_LENGTH_MEASURE( 1.00000000000000E-006 ), #204 );
#136 = LINE( '', #205, #206 );
#137 = CURVE_STYLE( '', #207, POSITIVE_LENGTH_MEASURE( 1.00000000000000E-006 ), #208 );
#138 = LINE( '', #209, #210 );
#139 = POINT_STYLE( ' ', #211, POSITIVE_LENGTH_MEASURE( 1.00000000000000E-006 ), #212 );
#140 = CARTESIAN_POINT( '', ( 0.000000000000000, 0.000000000000000, -58.1000000000000 ) );
#141 = CURVE_STYLE( '', #213, POSITIVE_LENGTH_MEASURE( 1.00000000000000E-006 ), #214 );
#142 = CIRCLE( '', #215, 58.1000000000000 );
#143 = CURVE_STYLE( '', #216, POSITIVE_LENGTH_MEASURE( 1.00000000000000E-006 ), #217 );
#144 = CIRCLE( '', #218, 80.0000000000000 );
#145 = CURVE_STYLE( '', #219, POSITIVE_LENGTH_MEASURE( 1.00000000000000E-006 ), #220 );
#146 = CIRCLE( '', #221, 80.0000000000000 );
#147 = SURFACE_STYLE_USAGE( .BOTH., #222 );
#148 = FACE_OUTER_BOUND( '', #223, .T. );
#149 = FACE_BOUND( '', #224, .T. );
#150 = PLANE( '', #225 );
#151 = SURFACE_STYLE_USAGE( .BOTH., #226 );
#152 = FACE_OUTER_BOUND( '', #227, .T. );
#153 = CYLINDRICAL_SURFACE( '', #228, 80.0000000000000 );
#154 = SURFACE_STYLE_USAGE( .BOTH., #229 );
#155 = FACE_OUTER_BOUND( '', #230, .T. );
#156 = CYLINDRICAL_SURFACE( '', #231, 58.1000000000000 );
#157 = POINT_STYLE( ' ', #232, POSITIVE_LENGTH_MEASURE( 1.00000000000000E-006 ), #233 );
#158 = CARTESIAN_POINT( '', ( 0.000000000000000, 0.000000000000000, -80.0000000000000 ) );
#159 = POINT_STYLE( ' ', #234, POSITIVE_LENGTH_MEASURE( 1.00000000000000E-006 ), #235 );
#160 = CARTESIAN_POINT( '', ( 0.000000000000000, 9.79685083057902E-015, 80.0000000000000 ) );
#161 = CURVE_STYLE( '', #236, POSITIVE_LENGTH_MEASURE( 1.00000000000000E-006 ), #237 );
#162 = CIRCLE( '', #238, 80.0000000000000 );
#163 = CURVE_STYLE( '', #239, POSITIVE_LENGTH_MEASURE( 1.00000000000000E-006 ), #240 );
#164 = CIRCLE( '', #241, 58.1000000000000 );
#165 = SURFACE_STYLE_USAGE( .BOTH., #242 );
#166 = FACE_OUTER_BOUND( '', #243, .T. );
#167 = CYLINDRICAL_SURFACE( '', #244, 58.1000000000000 );
#168 = CURVE_STYLE( '', #245, POSITIVE_LENGTH_MEASURE( 1.00000000000000E-006 ), #246 );
#169 = CIRCLE( '', #247, 58.1000000000000 );
#170 = CURVE_STYLE( '', #248, POSITIVE_LENGTH_MEASURE( 1.00000000000000E-006 ), #249 );
#171 = CIRCLE( '', #250, 80.0000000000000 );
#172 = CURVE_STYLE( '', #251, POSITIVE_LENGTH_MEASURE( 1.00000000000000E-006 ), #252 );
#173 = CIRCLE( '', #253, 58.1000000000000 );
#174 = CURVE_STYLE( '', #254, POSITIVE_LENGTH_MEASURE( 1.00000000000000E-006 ), #255 );
#175 = LINE( '', #256, #257 );
#176 = CURVE_STYLE( '', #258, POSITIVE_LENGTH_MEASURE( 1.00000000000000E-006 ), #259 );
#177 = LINE( '', #260, #261 );
#178 = POINT_STYLE( ' ', #262, POSITIVE_LENGTH_MEASURE( 1.00000000000000E-006 ), #263 );
#179 = CARTESIAN_POINT( '', ( 5000.00000000000, 0.000000000000000, -80.0000000000000 ) );
#180 = SURFACE_STYLE_USAGE( .BOTH., #264 );
#181 = CLOSED_SHELL( '', ( #77, #79, #89, #51, #75, #55 ) );
#182 = PRODUCT_CONTEXT( '', #37, 'mechanical' );
#183 = PRODUCT_DEFINITION_FORMATION_WITH_SPECIFIED_SOURCE( ' ', 'NONE', #104, .NOT_KNOWN. );
#184 = CARTESIAN_POINT( '', ( 0.000000000000000, 0.000000000000000, 0.000000000000000 ) );
#185 = DIRECTION( '', ( 0.000000000000000, 0.000000000000000, 1.00000000000000 ) );
#186 = DIRECTION( '', ( 1.00000000000000, 0.000000000000000, 0.000000000000000 ) );
#187 =  ( NAMED_UNIT( #112 )LENGTH_UNIT(  )SI_UNIT( .MILLI., .METRE. ) );
#188 = SURFACE_SIDE_STYLE( '', ( #266 ) );
#189 = EDGE_LOOP( '', ( #267, #268, #269, #270 ) );
#190 = AXIS2_PLACEMENT_3D( '', #271, #272, #273 );
#191 = PRE_DEFINED_MARKER( '' );
#192 = COLOUR_RGB( '', 0.689999997615810, 0.689999997615810, 0.689999997615810 );
#193 = SURFACE_SIDE_STYLE( '', ( #274 ) );
#194 = EDGE_LOOP( '', ( #275, #276 ) );
#195 = EDGE_LOOP( '', ( #277, #278 ) );
#196 = AXIS2_PLACEMENT_3D( '', #279, #280, #281 );
#197 = PRE_DEFINED_MARKER( '' );
#198 = COLOUR_RGB( '', 0.689999997615810, 0.689999997615810, 0.689999997615810 );
#199 = PRE_DEFINED_MARKER( '' );
#200 = COLOUR_RGB( '', 0.689999997615810, 0.689999997615810, 0.689999997615810 );
#201 = PRE_DEFINED_MARKER( '' );
#202 = COLOUR_RGB( '', 0.689999997615810, 0.689999997615810, 0.689999997615810 );
#203 = DRAUGHTING_PRE_DEFINED_CURVE_FONT( 'continuous' );
#204 = COLOUR_RGB( '', 0.689999997615810, 0.689999997615810, 0.689999997615810 );
#205 = CARTESIAN_POINT( '', ( 0.000000000000000, -9.79685083057902E-015, -80.0000000000000 ) );
#206 = VECTOR( '', #282, 1.00000000000000 );
#207 = DRAUGHTING_PRE_DEFINED_CURVE_FONT( 'continuous' );
#208 = COLOUR_RGB( '', 0.689999997615810, 0.689999997615810, 0.689999997615810 );
#209 = CARTESIAN_POINT( '', ( 0.000000000000000, 7.11496291570801E-015, 58.1000000000000 ) );
#210 = VECTOR( '', #283, 1.00000000000000 );
#211 = PRE_DEFINED_MARKER( '' );
#212 = COLOUR_RGB( '', 0.689999997615810, 0.689999997615810, 0.689999997615810 );
#213 = DRAUGHTING_PRE_DEFINED_CURVE_FONT( 'continuous' );
#214 = COLOUR_RGB( '', 0.689999997615810, 0.689999997615810, 0.689999997615810 );
#215 = AXIS2_PLACEMENT_3D( '', #284, #285, #286 );
#216 = DRAUGHTING_PRE_DEFINED_CURVE_FONT( 'continuous' );
#217 = COLOUR_RGB( '', 0.689999997615810, 0.689999997615810, 0.689999997615810 );
#218 = AXIS2_PLACEMENT_3D( '', #287, #288, #289 );
#219 = DRAUGHTING_PRE_DEFINED_CURVE_FONT( 'continuous' );
#220 = COLOUR_RGB( '', 0.689999997615810, 0.689999997615810, 0.689999997615810 );
#221 = AXIS2_PLACEMENT_3D( '', #290, #291, #292 );
#222 = SURFACE_SIDE_STYLE( '', ( #293 ) );
#223 = EDGE_LOOP( '', ( #294, #295 ) );
#224 = EDGE_LOOP( '', ( #296, #297 ) );
#225 = AXIS2_PLACEMENT_3D( '', #298, #299, #300 );
#226 = SURFACE_SIDE_STYLE( '', ( #301 ) );
#227 = EDGE_LOOP( '', ( #302, #303, #304, #305 ) );
#228 = AXIS2_PLACEMENT_3D( '', #306, #307, #308 );
#229 = SURFACE_SIDE_STYLE( '', ( #309 ) );
#230 = EDGE_LOOP( '', ( #310, #311, #312, #313 ) );
#231 = AXIS2_PLACEMENT_3D( '', #314, #315, #316 );
#232 = PRE_DEFINED_MARKER( '' );
#233 = COLOUR_RGB( '', 0.689999997615810, 0.689999997615810, 0.689999997615810 );
#234 = PRE_DEFINED_MARKER( '' );
#235 = COLOUR_RGB( '', 0.689999997615810, 0.689999997615810, 0.689999997615810 );
#236 = DRAUGHTING_PRE_DEFINED_CURVE_FONT( 'continuous' );
#237 = COLOUR_RGB( '', 0.689999997615810, 0.689999997615810, 0.689999997615810 );
#238 = AXIS2_PLACEMENT_3D( '', #317, #318, #319 );
#239 = DRAUGHTING_PRE_DEFINED_CURVE_FONT( 'continuous' );
#240 = COLOUR_RGB( '', 0.689999997615810, 0.689999997615810, 0.689999997615810 );
#241 = AXIS2_PLACEMENT_3D( '', #320, #321, #322 );
#242 = SURFACE_SIDE_STYLE( '', ( #323 ) );
#243 = EDGE_LOOP( '', ( #324, #325, #326, #327 ) );
#244 = AXIS2_PLACEMENT_3D( '', #328, #329, #330 );
#245 = DRAUGHTING_PRE_DEFINED_CURVE_FONT( 'continuous' );
#246 = COLOUR_RGB( '', 0.689999997615810, 0.689999997615810, 0.689999997615810 );
#247 = AXIS2_PLACEMENT_3D( '', #331, #332, #333 );
#248 = DRAUGHTING_PRE_DEFINED_CURVE_FONT( 'continuous' );
#249 = COLOUR_RGB( '', 0.689999997615810, 0.689999997615810, 0.689999997615810 );
#250 = AXIS2_PLACEMENT_3D( '', #334, #335, #336 );
#251 = DRAUGHTING_PRE_DEFINED_CURVE_FONT( 'continuous' );
#252 = COLOUR_RGB( '', 0.689999997615810, 0.689999997615810, 0.689999997615810 );
#253 = AXIS2_PLACEMENT_3D( '', #337, #338, #339 );
#254 = DRAUGHTING_PRE_DEFINED_CURVE_FONT( 'continuous' );
#255 = COLOUR_RGB( '', 0.689999997615810, 0.689999997615810, 0.689999997615810 );
#256 = CARTESIAN_POINT( '', ( 0.000000000000000, -7.11496291570801E-015, -58.1000000000000 ) );
#257 = VECTOR( '', #340, 1.00000000000000 );
#258 = DRAUGHTING_PRE_DEFINED_CURVE_FONT( 'continuous' );
#259 = COLOUR_RGB( '', 0.689999997615810, 0.689999997615810, 0.689999997615810 );
#260 = CARTESIAN_POINT( '', ( 0.000000000000000, 9.79685083057902E-015, 80.0000000000000 ) );
#261 = VECTOR( '', #341, 1.00000000000000 );
#262 = PRE_DEFINED_MARKER( '' );
#263 = COLOUR_RGB( '', 0.689999997615810, 0.689999997615810, 0.689999997615810 );
#264 = SURFACE_SIDE_STYLE( '', ( #342 ) );
#266 = SURFACE_STYLE_FILL_AREA( #343 );
#267 = ORIENTED_EDGE( '', *, *, #63, .T. );
#268 = ORIENTED_EDGE( '', *, *, #71, .T. );
#269 = ORIENTED_EDGE( '', *, *, #99, .T. );
#270 = ORIENTED_EDGE( '', *, *, #93, .T. );
#271 = CARTESIAN_POINT( '', ( 0.000000000000000, 0.000000000000000, 0.000000000000000 ) );
#272 = DIRECTION( '', ( -1.00000000000000, -0.000000000000000, -0.000000000000000 ) );
#273 = DIRECTION( '', ( 0.000000000000000, 0.000000000000000, -1.00000000000000 ) );
#274 = SURFACE_STYLE_FILL_AREA( #344 );
#275 = ORIENTED_EDGE( '', *, *, #73, .F. );
#276 = ORIENTED_EDGE( '', *, *, #93, .F. );
#277 = ORIENTED_EDGE( '', *, *, #91, .T. );
#278 = ORIENTED_EDGE( '', *, *, #69, .T. );
#279 = CARTESIAN_POINT( '', ( 0.000000000000000, 0.000000000000000, 0.000000000000000 ) );
#280 = DIRECTION( '', ( 1.00000000000000, 0.000000000000000, 0.000000000000000 ) );
#281 = DIRECTION( '', ( 0.000000000000000, 0.000000000000000, -1.00000000000000 ) );
#282 = DIRECTION( '', ( 1.00000000000000, 0.000000000000000, 0.000000000000000 ) );
#283 = DIRECTION( '', ( -1.00000000000000, 0.000000000000000, 0.000000000000000 ) );
#284 = CARTESIAN_POINT( '', ( 0.000000000000000, 0.000000000000000, 0.000000000000000 ) );
#285 = DIRECTION( '', ( 1.00000000000000, -0.000000000000000, 0.000000000000000 ) );
#286 = DIRECTION( '', ( 0.000000000000000, 0.000000000000000, -1.00000000000000 ) );
#287 = CARTESIAN_POINT( '', ( 5000.00000000000, 0.000000000000000, 0.000000000000000 ) );
#288 = DIRECTION( '', ( -1.00000000000000, 0.000000000000000, 0.000000000000000 ) );
#289 = DIRECTION( '', ( 0.000000000000000, 0.000000000000000, -1.00000000000000 ) );
#290 = CARTESIAN_POINT( '', ( 0.000000000000000, 0.000000000000000, 0.000000000000000 ) );
#291 = DIRECTION( '', ( 1.00000000000000, -0.000000000000000, 0.000000000000000 ) );
#292 = DIRECTION( '', ( 0.000000000000000, 0.000000000000000, -1.00000000000000 ) );
#293 = SURFACE_STYLE_FILL_AREA( #345 );
#294 = ORIENTED_EDGE( '', *, *, #71, .F. );
#295 = ORIENTED_EDGE( '', *, *, #85, .F. );
#296 = ORIENTED_EDGE( '', *, *, #87, .F. );
#297 = ORIENTED_EDGE( '', *, *, #95, .F. );
#298 = CARTESIAN_POINT( '', ( 5000.00000000000, 0.000000000000000, 0.000000000000000 ) );
#299 = DIRECTION( '', ( 1.00000000000000, 0.000000000000000, 0.000000000000000 ) );
#300 = DIRECTION( '', ( 0.000000000000000, 0.000000000000000, -1.00000000000000 ) );
#301 = SURFACE_STYLE_FILL_AREA( #346 );
#302 = ORIENTED_EDGE( '', *, *, #63, .F. );
#303 = ORIENTED_EDGE( '', *, *, #73, .T. );
#304 = ORIENTED_EDGE( '', *, *, #99, .F. );
#305 = ORIENTED_EDGE( '', *, *, #85, .T. );
#306 = CARTESIAN_POINT( '', ( 0.000000000000000, 0.000000000000000, 0.000000000000000 ) );
#307 = DIRECTION( '', ( -1.00000000000000, -0.000000000000000, -0.000000000000000 ) );
#308 = DIRECTION( '', ( 0.000000000000000, 0.000000000000000, -1.00000000000000 ) );
#309 = SURFACE_STYLE_FILL_AREA( #347 );
#310 = ORIENTED_EDGE( '', *, *, #97, .F. );
#311 = ORIENTED_EDGE( '', *, *, #69, .F. );
#312 = ORIENTED_EDGE( '', *, *, #65, .F. );
#313 = ORIENTED_EDGE( '', *, *, #95, .T. );
#314 = CARTESIAN_POINT( '', ( 0.000000000000000, 0.000000000000000, 0.000000000000000 ) );
#315 = DIRECTION( '', ( -1.00000000000000, -0.000000000000000, -0.000000000000000 ) );
#316 = DIRECTION( '', ( 0.000000000000000, 0.000000000000000, -1.00000000000000 ) );
#317 = CARTESIAN_POINT( '', ( 5000.00000000000, 0.000000000000000, 0.000000000000000 ) );
#318 = DIRECTION( '', ( -1.00000000000000, 0.000000000000000, 0.000000000000000 ) );
#319 = DIRECTION( '', ( 0.000000000000000, 0.000000000000000, -1.00000000000000 ) );
#320 = CARTESIAN_POINT( '', ( 5000.00000000000, 0.000000000000000, 0.000000000000000 ) );
#321 = DIRECTION( '', ( 1.00000000000000, 0.000000000000000, 0.000000000000000 ) );
#322 = DIRECTION( '', ( 0.000000000000000, 0.000000000000000, -1.00000000000000 ) );
#323 = SURFACE_STYLE_FILL_AREA( #348 );
#324 = ORIENTED_EDGE( '', *, *, #97, .T. );
#325 = ORIENTED_EDGE( '', *, *, #87, .T. );
#326 = ORIENTED_EDGE( '', *, *, #65, .T. );
#327 = ORIENTED_EDGE( '', *, *, #91, .F. );
#328 = CARTESIAN_POINT( '', ( 0.000000000000000, 0.000000000000000, 0.000000000000000 ) );
#329 = DIRECTION( '', ( -1.00000000000000, -0.000000000000000, -0.000000000000000 ) );
#330 = DIRECTION( '', ( 0.000000000000000, 0.000000000000000, -1.00000000000000 ) );
#331 = CARTESIAN_POINT( '', ( 0.000000000000000, 0.000000000000000, 0.000000000000000 ) );
#332 = DIRECTION( '', ( 1.00000000000000, -0.000000000000000, 0.000000000000000 ) );
#333 = DIRECTION( '', ( 0.000000000000000, 0.000000000000000, -1.00000000000000 ) );
#334 = CARTESIAN_POINT( '', ( 0.000000000000000, 0.000000000000000, 0.000000000000000 ) );
#335 = DIRECTION( '', ( 1.00000000000000, -0.000000000000000, 0.000000000000000 ) );
#336 = DIRECTION( '', ( 0.000000000000000, 0.000000000000000, -1.00000000000000 ) );
#337 = CARTESIAN_POINT( '', ( 5000.00000000000, 0.000000000000000, 0.000000000000000 ) );
#338 = DIRECTION( '', ( 1.00000000000000, 0.000000000000000, 0.000000000000000 ) );
#339 = DIRECTION( '', ( 0.000000000000000, 0.000000000000000, -1.00000000000000 ) );
#340 = DIRECTION( '', ( 1.00000000000000, 0.000000000000000, 0.000000000000000 ) );
#341 = DIRECTION( '', ( -1.00000000000000, -0.000000000000000, -0.000000000000000 ) );
#342 = SURFACE_STYLE_FILL_AREA( #349 );
#343 = FILL_AREA_STYLE( '', ( #350 ) );
#344 = FILL_AREA_STYLE( '', ( #351 ) );
#345 = FILL_AREA_STYLE( '', ( #352 ) );
#346 = FILL_AREA_STYLE( '', ( #353 ) );
#347 = FILL_AREA_STYLE( '', ( #354 ) );
#348 = FILL_AREA_STYLE( '', ( #355 ) );
#349 = FILL_AREA_STYLE( '', ( #356 ) );
#350 = FILL_AREA_STYLE_COLOUR( '', #357 );
#351 = FILL_AREA_STYLE_COLOUR( '', #358 );
#352 = FILL_AREA_STYLE_COLOUR( '', #359 );
#353 = FILL_AREA_STYLE_COLOUR( '', #360 );
#354 = FILL_AREA_STYLE_COLOUR( '', #361 );
#355 = FILL_AREA_STYLE_COLOUR( '', #362 );
#356 = FILL_AREA_STYLE_COLOUR( '', #363 );
#357 = COLOUR_RGB( '', 0.689999997615810, 0.689999997615810, 0.689999997615810 );
#358 = COLOUR_RGB( '', 0.689999997615810, 0.689999997615810, 0.689999997615810 );
#359 = COLOUR_RGB( '', 0.689999997615810, 0.689999997615810, 0.689999997615810 );
#360 = COLOUR_RGB( '', 0.689999997615810, 0.689999997615810, 0.689999997615810 );
#361 = COLOUR_RGB( '', 0.689999997615810, 0.689999997615810, 0.689999997615810 );
#362 = COLOUR_RGB( '', 0.689999997615810, 0.689999997615810, 0.689999997615810 );
#363 = COLOUR_RGB( '', 0.689999997615810, 0.689999997615810, 0.689999997615810 );
ENDSEC;
END-ISO-10303-21;
