ISO-10303-21;
HEADER;
FILE_DESCRIPTION( ( 'STEP AP214' ), '1' );
FILE_NAME( 'p:/temp/worker_1/temp/exporttempdir_3820_306_KiHmM/format_0/AGRU_11056007507_Tee_PPR grey_75 - MOP 16 bar (architecture400).stp', '2022-03-10T06:58:07', ( 'License CC BY-ND 4.0' ), ( 'CADENAS' ), ' ', 'PARTsolutions', ' ' );
FILE_SCHEMA( ( 'AUTOMOTIVE_DESIGN { 1 0 10303 214 1 1 1 1 }' ) );
ENDSEC;
DATA;
#1 = MECHANICAL_DESIGN_GEOMETRIC_PRESENTATION_REPRESENTATION( ' ', ( #10, #11, #12, #13, #14, #15, #16, #17, #18, #19, #20, #21, #22 ), #6 );
#2 = PRODUCT_DEFINITION_CONTEXT( '', #23, 'design' );
#3 = APPLICATION_PROTOCOL_DEFINITION( 'international standard', 'automotive_design', 2001, #23 );
#4 = PRODUCT_CATEGORY_RELATIONSHIP( 'NONE', 'NONE', #24, #25 );
#5 = SHAPE_DEFINITION_REPRESENTATION( #26, #27 );
#6 =  ( GEOMETRIC_REPRESENTATION_CONTEXT( 3 )GLOBAL_UNCERTAINTY_ASSIGNED_CONTEXT( ( #30 ) )GLOBAL_UNIT_ASSIGNED_CONTEXT( ( #32, #33, #34 ) )REPRESENTATION_CONTEXT( 'NONE', 'WORKSPACE' ) );
#10 = STYLED_ITEM( '', ( #36 ), #37 );
#11 = STYLED_ITEM( '', ( #38 ), #39 );
#12 = STYLED_ITEM( '', ( #40 ), #41 );
#13 = STYLED_ITEM( '', ( #42 ), #43 );
#14 = STYLED_ITEM( '', ( #44 ), #45 );
#15 = STYLED_ITEM( '', ( #46 ), #47 );
#16 = STYLED_ITEM( '', ( #48 ), #49 );
#17 = STYLED_ITEM( '', ( #50 ), #51 );
#18 = STYLED_ITEM( '', ( #52 ), #53 );
#19 = STYLED_ITEM( '', ( #54 ), #55 );
#20 = STYLED_ITEM( '', ( #56 ), #57 );
#21 = STYLED_ITEM( '', ( #58 ), #59 );
#22 = STYLED_ITEM( '', ( #60 ), #61 );
#23 = APPLICATION_CONTEXT( 'core data for automotive mechanical design processes' );
#24 = PRODUCT_CATEGORY( 'part', 'NONE' );
#25 = PRODUCT_RELATED_PRODUCT_CATEGORY( 'detail', ' ', ( #62 ) );
#26 = PRODUCT_DEFINITION_SHAPE( 'NONE', 'NONE', #63 );
#27 = ADVANCED_BREP_SHAPE_REPRESENTATION( '_AGRU_11056007507_Tee_PPR grey_75 - MOP 16 bar (architecture400)', ( #64, #65 ), #6 );
#30 = UNCERTAINTY_MEASURE_WITH_UNIT( LENGTH_MEASURE( 0.00100000000000000 ), #32, '', '' );
#32 =  ( CONVERSION_BASED_UNIT( 'MILLIMETRE', #68 )LENGTH_UNIT(  )NAMED_UNIT( #71 ) );
#33 =  ( NAMED_UNIT( #73 )PLANE_ANGLE_UNIT(  )SI_UNIT( $, .RADIAN. ) );
#34 =  ( NAMED_UNIT( #73 )SI_UNIT( $, .STERADIAN. )SOLID_ANGLE_UNIT(  ) );
#36 = PRESENTATION_STYLE_ASSIGNMENT( ( #79 ) );
#37 = ADVANCED_FACE( '', ( #80, #81 ), #82, .F. );
#38 = PRESENTATION_STYLE_ASSIGNMENT( ( #83 ) );
#39 = ADVANCED_FACE( '', ( #84, #85, #86 ), #87, .T. );
#40 = PRESENTATION_STYLE_ASSIGNMENT( ( #88 ) );
#41 = ADVANCED_FACE( '', ( #89, #90 ), #91, .T. );
#42 = PRESENTATION_STYLE_ASSIGNMENT( ( #92 ) );
#43 = ADVANCED_FACE( '', ( #93, #94 ), #95, .T. );
#44 = PRESENTATION_STYLE_ASSIGNMENT( ( #96 ) );
#45 = ADVANCED_FACE( '', ( #97, #98, #99 ), #100, .F. );
#46 = PRESENTATION_STYLE_ASSIGNMENT( ( #101 ) );
#47 = ADVANCED_FACE( '', ( #102, #103 ), #104, .T. );
#48 = PRESENTATION_STYLE_ASSIGNMENT( ( #105 ) );
#49 = ADVANCED_FACE( '', ( #106, #107 ), #108, .F. );
#50 = PRESENTATION_STYLE_ASSIGNMENT( ( #109 ) );
#51 = ADVANCED_FACE( '', ( #110, #111 ), #112, .F. );
#52 = PRESENTATION_STYLE_ASSIGNMENT( ( #113 ) );
#53 = ADVANCED_FACE( '', ( #114, #115 ), #116, .T. );
#54 = PRESENTATION_STYLE_ASSIGNMENT( ( #117 ) );
#55 = ADVANCED_FACE( '', ( #118, #119 ), #120, .T. );
#56 = PRESENTATION_STYLE_ASSIGNMENT( ( #121 ) );
#57 = ADVANCED_FACE( '', ( #122, #123 ), #124, .F. );
#58 = PRESENTATION_STYLE_ASSIGNMENT( ( #125 ) );
#59 = ADVANCED_FACE( '', ( #126, #127 ), #128, .T. );
#60 = PRESENTATION_STYLE_ASSIGNMENT( ( #129 ) );
#61 = ADVANCED_FACE( '', ( #130, #131 ), #132, .F. );
#62 = PRODUCT( '_AGRU_11056007507_Tee_PPR grey_75 - MOP 16 bar (architecture400)', '_AGRU_11056007507_Tee_PPR grey_75 - MOP 16 bar (architecture400)', 'PART-_AGRU_11056007507_Tee_PPR grey_75 - MOP 16 bar (architecture400)-DESC', ( #133 ) );
#63 = PRODUCT_DEFINITION( 'NONE', 'NONE', #134, #2 );
#64 = MANIFOLD_SOLID_BREP( '_AGRU_11056007507_Tee_PPR grey_75 - MOP 16 bar (architecture400)', #135 );
#65 = AXIS2_PLACEMENT_3D( '', #136, #137, #138 );
#68 = LENGTH_MEASURE_WITH_UNIT( LENGTH_MEASURE( 1.00000000000000 ), #139 );
#71 = DIMENSIONAL_EXPONENTS( 1.00000000000000, 0.000000000000000, 0.000000000000000, 0.000000000000000, 0.000000000000000, 0.000000000000000, 0.000000000000000 );
#73 = DIMENSIONAL_EXPONENTS( 0.000000000000000, 0.000000000000000, 0.000000000000000, 0.000000000000000, 0.000000000000000, 0.000000000000000, 0.000000000000000 );
#79 = SURFACE_STYLE_USAGE( .BOTH., #140 );
#80 = FACE_OUTER_BOUND( '', #141, .T. );
#81 = FACE_OUTER_BOUND( '', #142, .T. );
#82 = CYLINDRICAL_SURFACE( '', #143, 37.5000000000000 );
#83 = SURFACE_STYLE_USAGE( .BOTH., #144 );
#84 = FACE_OUTER_BOUND( '', #145, .T. );
#85 = FACE_OUTER_BOUND( '', #146, .T. );
#86 = FACE_BOUND( '', #147, .T. );
#87 = CYLINDRICAL_SURFACE( '', #148, 46.5000000000000 );
#88 = SURFACE_STYLE_USAGE( .BOTH., #149 );
#89 = FACE_BOUND( '', #150, .T. );
#90 = FACE_OUTER_BOUND( '', #151, .T. );
#91 = PLANE( '', #152 );
#92 = SURFACE_STYLE_USAGE( .BOTH., #153 );
#93 = FACE_BOUND( '', #154, .T. );
#94 = FACE_OUTER_BOUND( '', #155, .T. );
#95 = PLANE( '', #156 );
#96 = SURFACE_STYLE_USAGE( .BOTH., #157 );
#97 = FACE_OUTER_BOUND( '', #158, .T. );
#98 = FACE_BOUND( '', #159, .T. );
#99 = FACE_OUTER_BOUND( '', #160, .T. );
#100 = CYLINDRICAL_SURFACE( '', #161, 34.5000000000000 );
#101 = SURFACE_STYLE_USAGE( .BOTH., #162 );
#102 = FACE_BOUND( '', #163, .T. );
#103 = FACE_OUTER_BOUND( '', #164, .T. );
#104 = PLANE( '', #165 );
#105 = SURFACE_STYLE_USAGE( .BOTH., #166 );
#106 = FACE_OUTER_BOUND( '', #167, .T. );
#107 = FACE_OUTER_BOUND( '', #168, .T. );
#108 = CYLINDRICAL_SURFACE( '', #169, 34.5000000000000 );
#109 = SURFACE_STYLE_USAGE( .BOTH., #170 );
#110 = FACE_BOUND( '', #171, .T. );
#111 = FACE_OUTER_BOUND( '', #172, .T. );
#112 = PLANE( '', #173 );
#113 = SURFACE_STYLE_USAGE( .BOTH., #174 );
#114 = FACE_BOUND( '', #175, .T. );
#115 = FACE_OUTER_BOUND( '', #176, .T. );
#116 = PLANE( '', #177 );
#117 = SURFACE_STYLE_USAGE( .BOTH., #178 );
#118 = FACE_OUTER_BOUND( '', #179, .T. );
#119 = FACE_OUTER_BOUND( '', #180, .T. );
#120 = CYLINDRICAL_SURFACE( '', #181, 46.5000000000000 );
#121 = SURFACE_STYLE_USAGE( .BOTH., #182 );
#122 = FACE_OUTER_BOUND( '', #183, .T. );
#123 = FACE_OUTER_BOUND( '', #184, .T. );
#124 = CYLINDRICAL_SURFACE( '', #185, 37.5000000000000 );
#125 = SURFACE_STYLE_USAGE( .BOTH., #186 );
#126 = FACE_OUTER_BOUND( '', #187, .T. );
#127 = FACE_BOUND( '', #188, .T. );
#128 = PLANE( '', #189 );
#129 = SURFACE_STYLE_USAGE( .BOTH., #190 );
#130 = FACE_OUTER_BOUND( '', #191, .T. );
#131 = FACE_OUTER_BOUND( '', #192, .T. );
#132 = CYLINDRICAL_SURFACE( '', #193, 37.5000000000000 );
#133 = PRODUCT_CONTEXT( '', #23, 'mechanical' );
#134 = PRODUCT_DEFINITION_FORMATION_WITH_SPECIFIED_SOURCE( ' ', 'NONE', #62, .NOT_KNOWN. );
#135 = CLOSED_SHELL( '', ( #45, #39, #43, #51, #55, #41, #37, #53, #59, #61, #57, #47, #49 ) );
#136 = CARTESIAN_POINT( '', ( 0.000000000000000, 0.000000000000000, 0.000000000000000 ) );
#137 = DIRECTION( '', ( 0.000000000000000, 0.000000000000000, 1.00000000000000 ) );
#138 = DIRECTION( '', ( 1.00000000000000, 0.000000000000000, 0.000000000000000 ) );
#139 =  ( LENGTH_UNIT(  )NAMED_UNIT( #71 )SI_UNIT( .MILLI., .METRE. ) );
#140 = SURFACE_SIDE_STYLE( '', ( #195 ) );
#141 = EDGE_LOOP( '', ( #196 ) );
#142 = EDGE_LOOP( '', ( #197 ) );
#143 = AXIS2_PLACEMENT_3D( '', #198, #199, #200 );
#144 = SURFACE_SIDE_STYLE( '', ( #201 ) );
#145 = EDGE_LOOP( '', ( #202 ) );
#146 = EDGE_LOOP( '', ( #203 ) );
#147 = EDGE_LOOP( '', ( #204, #205 ) );
#148 = AXIS2_PLACEMENT_3D( '', #206, #207, #208 );
#149 = SURFACE_SIDE_STYLE( '', ( #209 ) );
#150 = EDGE_LOOP( '', ( #210 ) );
#151 = EDGE_LOOP( '', ( #211 ) );
#152 = AXIS2_PLACEMENT_3D( '', #212, #213, #214 );
#153 = SURFACE_SIDE_STYLE( '', ( #215 ) );
#154 = EDGE_LOOP( '', ( #216 ) );
#155 = EDGE_LOOP( '', ( #217 ) );
#156 = AXIS2_PLACEMENT_3D( '', #218, #219, #220 );
#157 = SURFACE_SIDE_STYLE( '', ( #221 ) );
#158 = EDGE_LOOP( '', ( #222 ) );
#159 = EDGE_LOOP( '', ( #223, #224 ) );
#160 = EDGE_LOOP( '', ( #225 ) );
#161 = AXIS2_PLACEMENT_3D( '', #226, #227, #228 );
#162 = SURFACE_SIDE_STYLE( '', ( #229 ) );
#163 = EDGE_LOOP( '', ( #230 ) );
#164 = EDGE_LOOP( '', ( #231 ) );
#165 = AXIS2_PLACEMENT_3D( '', #232, #233, #234 );
#166 = SURFACE_SIDE_STYLE( '', ( #235 ) );
#167 = EDGE_LOOP( '', ( #236, #237 ) );
#168 = EDGE_LOOP( '', ( #238 ) );
#169 = AXIS2_PLACEMENT_3D( '', #239, #240, #241 );
#170 = SURFACE_SIDE_STYLE( '', ( #242 ) );
#171 = EDGE_LOOP( '', ( #243 ) );
#172 = EDGE_LOOP( '', ( #244 ) );
#173 = AXIS2_PLACEMENT_3D( '', #245, #246, #247 );
#174 = SURFACE_SIDE_STYLE( '', ( #248 ) );
#175 = EDGE_LOOP( '', ( #249 ) );
#176 = EDGE_LOOP( '', ( #250 ) );
#177 = AXIS2_PLACEMENT_3D( '', #251, #252, #253 );
#178 = SURFACE_SIDE_STYLE( '', ( #254 ) );
#179 = EDGE_LOOP( '', ( #255 ) );
#180 = EDGE_LOOP( '', ( #256, #257 ) );
#181 = AXIS2_PLACEMENT_3D( '', #258, #259, #260 );
#182 = SURFACE_SIDE_STYLE( '', ( #261 ) );
#183 = EDGE_LOOP( '', ( #262 ) );
#184 = EDGE_LOOP( '', ( #263 ) );
#185 = AXIS2_PLACEMENT_3D( '', #264, #265, #266 );
#186 = SURFACE_SIDE_STYLE( '', ( #267 ) );
#187 = EDGE_LOOP( '', ( #268 ) );
#188 = EDGE_LOOP( '', ( #269 ) );
#189 = AXIS2_PLACEMENT_3D( '', #270, #271, #272 );
#190 = SURFACE_SIDE_STYLE( '', ( #273 ) );
#191 = EDGE_LOOP( '', ( #274 ) );
#192 = EDGE_LOOP( '', ( #275 ) );
#193 = AXIS2_PLACEMENT_3D( '', #276, #277, #278 );
#195 = SURFACE_STYLE_FILL_AREA( #279 );
#196 = ORIENTED_EDGE( '', *, *, #280, .T. );
#197 = ORIENTED_EDGE( '', *, *, #281, .F. );
#198 = CARTESIAN_POINT( '', ( 30.5000000000000, 0.000000000000000, 0.000000000000000 ) );
#199 = DIRECTION( '', ( -1.00000000000000, -0.000000000000000, 0.000000000000000 ) );
#200 = DIRECTION( '', ( -0.000000000000000, 0.000000000000000, -1.00000000000000 ) );
#201 = SURFACE_STYLE_FILL_AREA( #282 );
#202 = ORIENTED_EDGE( '', *, *, #283, .T. );
#203 = ORIENTED_EDGE( '', *, *, #284, .F. );
#204 = ORIENTED_EDGE( '', *, *, #285, .F. );
#205 = ORIENTED_EDGE( '', *, *, #286, .F. );
#206 = CARTESIAN_POINT( '', ( 30.5000000000000, 0.000000000000000, 0.000000000000000 ) );
#207 = DIRECTION( '', ( 1.00000000000000, -0.000000000000000, -0.000000000000000 ) );
#208 = DIRECTION( '', ( 0.000000000000000, 0.000000000000000, 1.00000000000000 ) );
#209 = SURFACE_STYLE_FILL_AREA( #287 );
#210 = ORIENTED_EDGE( '', *, *, #288, .T. );
#211 = ORIENTED_EDGE( '', *, *, #289, .T. );
#212 = CARTESIAN_POINT( '', ( -46.7500000000000, 0.000000000000000, 71.0000000000000 ) );
#213 = DIRECTION( '', ( 0.000000000000000, 0.000000000000000, 1.00000000000000 ) );
#214 = DIRECTION( '', ( 1.00000000000000, 0.000000000000000, -0.000000000000000 ) );
#215 = SURFACE_STYLE_FILL_AREA( #290 );
#216 = ORIENTED_EDGE( '', *, *, #291, .F. );
#217 = ORIENTED_EDGE( '', *, *, #284, .T. );
#218 = CARTESIAN_POINT( '', ( 30.5000000000000, 0.000000000000000, 0.000000000000000 ) );
#219 = DIRECTION( '', ( 1.00000000000000, 0.000000000000000, 0.000000000000000 ) );
#220 = DIRECTION( '', ( 0.000000000000000, 0.000000000000000, -1.00000000000000 ) );
#221 = SURFACE_STYLE_FILL_AREA( #292 );
#222 = ORIENTED_EDGE( '', *, *, #293, .T. );
#223 = ORIENTED_EDGE( '', *, *, #294, .T. );
#224 = ORIENTED_EDGE( '', *, *, #295, .T. );
#225 = ORIENTED_EDGE( '', *, *, #296, .F. );
#226 = CARTESIAN_POINT( '', ( 30.5000000000000, 0.000000000000000, 0.000000000000000 ) );
#227 = DIRECTION( '', ( -1.00000000000000, -0.000000000000000, 0.000000000000000 ) );
#228 = DIRECTION( '', ( -0.000000000000000, 0.000000000000000, -1.00000000000000 ) );
#229 = SURFACE_STYLE_FILL_AREA( #297 );
#230 = ORIENTED_EDGE( '', *, *, #298, .T. );
#231 = ORIENTED_EDGE( '', *, *, #299, .F. );
#232 = CARTESIAN_POINT( '', ( -9.25000000000000, 0.000000000000000, 40.5000000000000 ) );
#233 = DIRECTION( '', ( 0.000000000000000, 0.000000000000000, 1.00000000000000 ) );
#234 = DIRECTION( '', ( 1.00000000000000, 0.000000000000000, -0.000000000000000 ) );
#235 = SURFACE_STYLE_FILL_AREA( #300 );
#236 = ORIENTED_EDGE( '', *, *, #294, .F. );
#237 = ORIENTED_EDGE( '', *, *, #295, .F. );
#238 = ORIENTED_EDGE( '', *, *, #298, .F. );
#239 = CARTESIAN_POINT( '', ( -46.7500000000000, 0.000000000000000, 0.000000000000000 ) );
#240 = DIRECTION( '', ( 0.000000000000000, -0.000000000000000, 1.00000000000000 ) );
#241 = DIRECTION( '', ( -1.00000000000000, 0.000000000000000, 0.000000000000000 ) );
#242 = SURFACE_STYLE_FILL_AREA( #301 );
#243 = ORIENTED_EDGE( '', *, *, #281, .T. );
#244 = ORIENTED_EDGE( '', *, *, #283, .F. );
#245 = CARTESIAN_POINT( '', ( -124.000000000000, 0.000000000000000, 0.000000000000000 ) );
#246 = DIRECTION( '', ( 1.00000000000000, 0.000000000000000, 0.000000000000000 ) );
#247 = DIRECTION( '', ( 0.000000000000000, 0.000000000000000, -1.00000000000000 ) );
#248 = SURFACE_STYLE_FILL_AREA( #302 );
#249 = ORIENTED_EDGE( '', *, *, #296, .T. );
#250 = ORIENTED_EDGE( '', *, *, #280, .F. );
#251 = CARTESIAN_POINT( '', ( -93.5000000000000, 0.000000000000000, 37.5000000000000 ) );
#252 = DIRECTION( '', ( -1.00000000000000, 0.000000000000000, 0.000000000000000 ) );
#253 = DIRECTION( '', ( 0.000000000000000, 0.000000000000000, 1.00000000000000 ) );
#254 = SURFACE_STYLE_FILL_AREA( #303 );
#255 = ORIENTED_EDGE( '', *, *, #289, .F. );
#256 = ORIENTED_EDGE( '', *, *, #286, .T. );
#257 = ORIENTED_EDGE( '', *, *, #285, .T. );
#258 = CARTESIAN_POINT( '', ( -46.7500000000000, 0.000000000000000, 71.0000000000000 ) );
#259 = DIRECTION( '', ( 0.000000000000000, -0.000000000000000, 1.00000000000000 ) );
#260 = DIRECTION( '', ( -1.00000000000000, 0.000000000000000, 0.000000000000000 ) );
#261 = SURFACE_STYLE_FILL_AREA( #304 );
#262 = ORIENTED_EDGE( '', *, *, #299, .T. );
#263 = ORIENTED_EDGE( '', *, *, #288, .F. );
#264 = CARTESIAN_POINT( '', ( -46.7500000000000, 0.000000000000000, 0.000000000000000 ) );
#265 = DIRECTION( '', ( 0.000000000000000, -0.000000000000000, 1.00000000000000 ) );
#266 = DIRECTION( '', ( -1.00000000000000, 0.000000000000000, 0.000000000000000 ) );
#267 = SURFACE_STYLE_FILL_AREA( #305 );
#268 = ORIENTED_EDGE( '', *, *, #306, .T. );
#269 = ORIENTED_EDGE( '', *, *, #293, .F. );
#270 = CARTESIAN_POINT( '', ( 0.000000000000000, 0.000000000000000, 34.5000000000000 ) );
#271 = DIRECTION( '', ( 1.00000000000000, 0.000000000000000, -0.000000000000000 ) );
#272 = DIRECTION( '', ( -0.000000000000000, 0.000000000000000, -1.00000000000000 ) );
#273 = SURFACE_STYLE_FILL_AREA( #307 );
#274 = ORIENTED_EDGE( '', *, *, #291, .T. );
#275 = ORIENTED_EDGE( '', *, *, #306, .F. );
#276 = CARTESIAN_POINT( '', ( 30.5000000000000, 0.000000000000000, 0.000000000000000 ) );
#277 = DIRECTION( '', ( -1.00000000000000, -0.000000000000000, 0.000000000000000 ) );
#278 = DIRECTION( '', ( -0.000000000000000, 0.000000000000000, -1.00000000000000 ) );
#279 = FILL_AREA_STYLE( '', ( #308 ) );
#280 = EDGE_CURVE( '', #309, #309, #310, .T. );
#281 = EDGE_CURVE( '', #311, #311, #312, .T. );
#282 = FILL_AREA_STYLE( '', ( #313 ) );
#283 = EDGE_CURVE( '', #314, #314, #315, .T. );
#284 = EDGE_CURVE( '', #316, #316, #317, .T. );
#285 = EDGE_CURVE( '', #318, #319, #320, .F. );
#286 = EDGE_CURVE( '', #319, #318, #321, .T. );
#287 = FILL_AREA_STYLE( '', ( #322 ) );
#288 = EDGE_CURVE( '', #323, #323, #324, .T. );
#289 = EDGE_CURVE( '', #325, #325, #326, .T. );
#290 = FILL_AREA_STYLE( '', ( #327 ) );
#291 = EDGE_CURVE( '', #328, #328, #329, .T. );
#292 = FILL_AREA_STYLE( '', ( #330 ) );
#293 = EDGE_CURVE( '', #331, #331, #332, .T. );
#294 = EDGE_CURVE( '', #333, #334, #335, .F. );
#295 = EDGE_CURVE( '', #334, #333, #336, .T. );
#296 = EDGE_CURVE( '', #337, #337, #338, .T. );
#297 = FILL_AREA_STYLE( '', ( #339 ) );
#298 = EDGE_CURVE( '', #340, #340, #341, .T. );
#299 = EDGE_CURVE( '', #342, #342, #343, .T. );
#300 = FILL_AREA_STYLE( '', ( #344 ) );
#301 = FILL_AREA_STYLE( '', ( #345 ) );
#302 = FILL_AREA_STYLE( '', ( #346 ) );
#303 = FILL_AREA_STYLE( '', ( #347 ) );
#304 = FILL_AREA_STYLE( '', ( #348 ) );
#305 = FILL_AREA_STYLE( '', ( #349 ) );
#306 = EDGE_CURVE( '', #350, #350, #351, .T. );
#307 = FILL_AREA_STYLE( '', ( #352 ) );
#308 = FILL_AREA_STYLE_COLOUR( '', #353 );
#309 = VERTEX_POINT( '', #354 );
#310 = CIRCLE( '', #355, 37.5000000000000 );
#311 = VERTEX_POINT( '', #356 );
#312 = CIRCLE( '', #357, 37.5000000000000 );
#313 = FILL_AREA_STYLE_COLOUR( '', #358 );
#314 = VERTEX_POINT( '', #359 );
#315 = CIRCLE( '', #360, 46.5000000000000 );
#316 = VERTEX_POINT( '', #361 );
#317 = CIRCLE( '', #362, 46.5000000000000 );
#318 = VERTEX_POINT( '', #363 );
#319 = VERTEX_POINT( '', #364 );
#320 = ELLIPSE( '', #365, 65.7609306503000, 46.5000000000000 );
#321 = ELLIPSE( '', #366, 65.7609306503000, 46.5000000000000 );
#322 = FILL_AREA_STYLE_COLOUR( '', #367 );
#323 = VERTEX_POINT( '', #368 );
#324 = CIRCLE( '', #369, 37.5000000000000 );
#325 = VERTEX_POINT( '', #370 );
#326 = CIRCLE( '', #371, 46.5000000000000 );
#327 = FILL_AREA_STYLE_COLOUR( '', #372 );
#328 = VERTEX_POINT( '', #373 );
#329 = CIRCLE( '', #374, 37.5000000000000 );
#330 = FILL_AREA_STYLE_COLOUR( '', #375 );
#331 = VERTEX_POINT( '', #376 );
#332 = CIRCLE( '', #377, 34.5000000000000 );
#333 = VERTEX_POINT( '', #378 );
#334 = VERTEX_POINT( '', #379 );
#335 = ELLIPSE( '', #380, 48.7903679019000, 34.5000000000000 );
#336 = ELLIPSE( '', #381, 48.7903679019000, 34.5000000000000 );
#337 = VERTEX_POINT( '', #382 );
#338 = CIRCLE( '', #383, 34.5000000000000 );
#339 = FILL_AREA_STYLE_COLOUR( '', #384 );
#340 = VERTEX_POINT( '', #385 );
#341 = CIRCLE( '', #386, 34.5000000000000 );
#342 = VERTEX_POINT( '', #387 );
#343 = CIRCLE( '', #388, 37.5000000000000 );
#344 = FILL_AREA_STYLE_COLOUR( '', #389 );
#345 = FILL_AREA_STYLE_COLOUR( '', #390 );
#346 = FILL_AREA_STYLE_COLOUR( '', #391 );
#347 = FILL_AREA_STYLE_COLOUR( '', #392 );
#348 = FILL_AREA_STYLE_COLOUR( '', #393 );
#349 = FILL_AREA_STYLE_COLOUR( '', #394 );
#350 = VERTEX_POINT( '', #395 );
#351 = CIRCLE( '', #396, 37.5000000000000 );
#352 = FILL_AREA_STYLE_COLOUR( '', #397 );
#353 = COLOUR_RGB( '', 0.713725507300000, 0.709803938900000, 0.650980413000000 );
#354 = CARTESIAN_POINT( '', ( -93.5000000000000, 0.000000000000000, -37.5000000000000 ) );
#355 = AXIS2_PLACEMENT_3D( '', #398, #399, #400 );
#356 = CARTESIAN_POINT( '', ( -124.000000000000, 0.000000000000000, -37.5000000000000 ) );
#357 = AXIS2_PLACEMENT_3D( '', #401, #402, #403 );
#358 = COLOUR_RGB( '', 0.713725507300000, 0.709803938900000, 0.650980413000000 );
#359 = CARTESIAN_POINT( '', ( -124.000000000000, 46.5000000000000, 0.000000000000000 ) );
#360 = AXIS2_PLACEMENT_3D( '', #404, #405, #406 );
#361 = CARTESIAN_POINT( '', ( 30.5000000000000, 46.5000000000000, 0.000000000000000 ) );
#362 = AXIS2_PLACEMENT_3D( '', #407, #408, #409 );
#363 = CARTESIAN_POINT( '', ( -46.7500000000000, 46.5000000000000, 0.000000000000000 ) );
#364 = CARTESIAN_POINT( '', ( -46.7500000000000, -46.5000000000000, 0.000000000000000 ) );
#365 = AXIS2_PLACEMENT_3D( '', #410, #411, #412 );
#366 = AXIS2_PLACEMENT_3D( '', #413, #414, #415 );
#367 = COLOUR_RGB( '', 0.713725507300000, 0.709803938900000, 0.650980413000000 );
#368 = CARTESIAN_POINT( '', ( -84.2500000000000, 0.000000000000000, 71.0000000000000 ) );
#369 = AXIS2_PLACEMENT_3D( '', #416, #417, #418 );
#370 = CARTESIAN_POINT( '', ( -0.250000000000000, 0.000000000000000, 71.0000000000000 ) );
#371 = AXIS2_PLACEMENT_3D( '', #419, #420, #421 );
#372 = COLOUR_RGB( '', 0.713725507300000, 0.709803938900000, 0.650980413000000 );
#373 = CARTESIAN_POINT( '', ( 30.5000000000000, 0.000000000000000, -37.5000000000000 ) );
#374 = AXIS2_PLACEMENT_3D( '', #422, #423, #424 );
#375 = COLOUR_RGB( '', 0.713725507300000, 0.709803938900000, 0.650980413000000 );
#376 = CARTESIAN_POINT( '', ( 0.000000000000000, 0.000000000000000, -34.5000000000000 ) );
#377 = AXIS2_PLACEMENT_3D( '', #425, #426, #427 );
#378 = CARTESIAN_POINT( '', ( -46.7500000000000, -34.5000000000000, 0.000000000000000 ) );
#379 = CARTESIAN_POINT( '', ( -46.7500000000000, 34.5000000000000, 0.000000000000000 ) );
#380 = AXIS2_PLACEMENT_3D( '', #428, #429, #430 );
#381 = AXIS2_PLACEMENT_3D( '', #431, #432, #433 );
#382 = CARTESIAN_POINT( '', ( -93.5000000000000, 0.000000000000000, -34.5000000000000 ) );
#383 = AXIS2_PLACEMENT_3D( '', #434, #435, #436 );
#384 = COLOUR_RGB( '', 0.713725507300000, 0.709803938900000, 0.650980413000000 );
#385 = CARTESIAN_POINT( '', ( -81.2500000000000, 0.000000000000000, 40.5000000000000 ) );
#386 = AXIS2_PLACEMENT_3D( '', #437, #438, #439 );
#387 = CARTESIAN_POINT( '', ( -84.2500000000000, 0.000000000000000, 40.5000000000000 ) );
#388 = AXIS2_PLACEMENT_3D( '', #440, #441, #442 );
#389 = COLOUR_RGB( '', 0.713725507300000, 0.709803938900000, 0.650980413000000 );
#390 = COLOUR_RGB( '', 0.713725507300000, 0.709803938900000, 0.650980413000000 );
#391 = COLOUR_RGB( '', 0.713725507300000, 0.709803938900000, 0.650980413000000 );
#392 = COLOUR_RGB( '', 0.713725507300000, 0.709803938900000, 0.650980413000000 );
#393 = COLOUR_RGB( '', 0.713725507300000, 0.709803938900000, 0.650980413000000 );
#394 = COLOUR_RGB( '', 0.713725507300000, 0.709803938900000, 0.650980413000000 );
#395 = CARTESIAN_POINT( '', ( 0.000000000000000, 0.000000000000000, -37.5000000000000 ) );
#396 = AXIS2_PLACEMENT_3D( '', #443, #444, #445 );
#397 = COLOUR_RGB( '', 0.713725507300000, 0.709803938900000, 0.650980413000000 );
#398 = CARTESIAN_POINT( '', ( -93.5000000000000, 0.000000000000000, 0.000000000000000 ) );
#399 = DIRECTION( '', ( 1.00000000000000, 0.000000000000000, -0.000000000000000 ) );
#400 = DIRECTION( '', ( -0.000000000000000, 0.000000000000000, -1.00000000000000 ) );
#401 = CARTESIAN_POINT( '', ( -124.000000000000, 0.000000000000000, 0.000000000000000 ) );
#402 = DIRECTION( '', ( 1.00000000000000, 0.000000000000000, -0.000000000000000 ) );
#403 = DIRECTION( '', ( -0.000000000000000, 0.000000000000000, -1.00000000000000 ) );
#404 = CARTESIAN_POINT( '', ( -124.000000000000, 0.000000000000000, 0.000000000000000 ) );
#405 = DIRECTION( '', ( 1.00000000000000, 0.000000000000000, 0.000000000000000 ) );
#406 = DIRECTION( '', ( 0.000000000000000, 1.00000000000000, 0.000000000000000 ) );
#407 = CARTESIAN_POINT( '', ( 30.5000000000000, 0.000000000000000, 0.000000000000000 ) );
#408 = DIRECTION( '', ( 1.00000000000000, 0.000000000000000, 0.000000000000000 ) );
#409 = DIRECTION( '', ( 0.000000000000000, 1.00000000000000, 0.000000000000000 ) );
#410 = CARTESIAN_POINT( '', ( -46.7500000000000, 0.000000000000000, 0.000000000000000 ) );
#411 = DIRECTION( '', ( -0.707106781186548, 0.000000000000000, -0.707106781186548 ) );
#412 = DIRECTION( '', ( -0.707106781186548, 0.000000000000000, 0.707106781186548 ) );
#413 = CARTESIAN_POINT( '', ( -46.7500000000000, 0.000000000000000, 0.000000000000000 ) );
#414 = DIRECTION( '', ( -0.707106781186548, 0.000000000000000, 0.707106781186548 ) );
#415 = DIRECTION( '', ( -0.707106781186548, -0.000000000000000, -0.707106781186548 ) );
#416 = CARTESIAN_POINT( '', ( -46.7500000000000, 0.000000000000000, 71.0000000000000 ) );
#417 = DIRECTION( '', ( -0.000000000000000, 0.000000000000000, -1.00000000000000 ) );
#418 = DIRECTION( '', ( -1.00000000000000, 0.000000000000000, 0.000000000000000 ) );
#419 = CARTESIAN_POINT( '', ( -46.7500000000000, 0.000000000000000, 71.0000000000000 ) );
#420 = DIRECTION( '', ( 0.000000000000000, 0.000000000000000, 1.00000000000000 ) );
#421 = DIRECTION( '', ( 1.00000000000000, 0.000000000000000, 0.000000000000000 ) );
#422 = CARTESIAN_POINT( '', ( 30.5000000000000, 0.000000000000000, 0.000000000000000 ) );
#423 = DIRECTION( '', ( 1.00000000000000, 0.000000000000000, -0.000000000000000 ) );
#424 = DIRECTION( '', ( -0.000000000000000, 0.000000000000000, -1.00000000000000 ) );
#425 = CARTESIAN_POINT( '', ( 0.000000000000000, 0.000000000000000, 0.000000000000000 ) );
#426 = DIRECTION( '', ( 1.00000000000000, 0.000000000000000, -0.000000000000000 ) );
#427 = DIRECTION( '', ( -0.000000000000000, 0.000000000000000, -1.00000000000000 ) );
#428 = CARTESIAN_POINT( '', ( -46.7500000000000, 0.000000000000000, 0.000000000000000 ) );
#429 = DIRECTION( '', ( 0.707106781186548, 0.000000000000000, -0.707106781186548 ) );
#430 = DIRECTION( '', ( 0.707106781186548, 0.000000000000000, 0.707106781186548 ) );
#431 = CARTESIAN_POINT( '', ( -46.7500000000000, 0.000000000000000, 0.000000000000000 ) );
#432 = DIRECTION( '', ( 0.707106781186548, 0.000000000000000, 0.707106781186548 ) );
#433 = DIRECTION( '', ( 0.707106781186548, -0.000000000000000, -0.707106781186548 ) );
#434 = CARTESIAN_POINT( '', ( -93.5000000000000, 0.000000000000000, 0.000000000000000 ) );
#435 = DIRECTION( '', ( 1.00000000000000, 0.000000000000000, -0.000000000000000 ) );
#436 = DIRECTION( '', ( -0.000000000000000, 0.000000000000000, -1.00000000000000 ) );
#437 = CARTESIAN_POINT( '', ( -46.7500000000000, 0.000000000000000, 40.5000000000000 ) );
#438 = DIRECTION( '', ( -0.000000000000000, 0.000000000000000, -1.00000000000000 ) );
#439 = DIRECTION( '', ( -1.00000000000000, 0.000000000000000, 0.000000000000000 ) );
#440 = CARTESIAN_POINT( '', ( -46.7500000000000, 0.000000000000000, 40.5000000000000 ) );
#441 = DIRECTION( '', ( -0.000000000000000, 0.000000000000000, -1.00000000000000 ) );
#442 = DIRECTION( '', ( -1.00000000000000, 0.000000000000000, 0.000000000000000 ) );
#443 = CARTESIAN_POINT( '', ( 0.000000000000000, 0.000000000000000, 0.000000000000000 ) );
#444 = DIRECTION( '', ( 1.00000000000000, 0.000000000000000, -0.000000000000000 ) );
#445 = DIRECTION( '', ( -0.000000000000000, 0.000000000000000, -1.00000000000000 ) );
ENDSEC;
END-ISO-10303-21;
