ISO-10303-21;
HEADER;
/* Generated by software containing ST-Developer
 * from STEP Tools, Inc. (www.steptools.com) 
 */

FILE_DESCRIPTION(
/* description */ (''),
/* implementation_level */ '2;1');

FILE_NAME(
/* name */ 'C:\\Users\\Gabriele\\Desktop\\catalogo\\CR30\\CR300200.stp',

/* time_stamp */ '2016-10-18T16:10:39+02:00',
/* author */ ('Gabriele'),
/* organization */ (''),
/* preprocessor_version */ 'ST-DEVELOPER v16.5',
/* originating_system */ 'Autodesk Inventor 2017',
/* authorisation */ '');

FILE_SCHEMA (('AUTOMOTIVE_DESIGN { 1 0 10303 214 3 1 1 }'));
ENDSEC;

DATA;
#10=MECHANICAL_DESIGN_GEOMETRIC_PRESENTATION_REPRESENTATION('',(#13),#615);
#11=SHAPE_REPRESENTATION_RELATIONSHIP('SRR','None',#624,#12);
#12=ADVANCED_BREP_SHAPE_REPRESENTATION('',(#14),#614);
#13=STYLED_ITEM('',(#633),#14);
#14=MANIFOLD_SOLID_BREP('Solido1',#339);
#15=ELLIPSE('',#351,19.4454364826301,13.75);
#16=ELLIPSE('',#352,19.4454364826301,13.75);
#17=ELLIPSE('',#363,19.4454364826301,13.75);
#18=ELLIPSE('',#374,19.4454364826301,13.75);
#19=ELLIPSE('',#387,13.4350288425444,9.5);
#20=ELLIPSE('',#388,13.4350288425444,9.5);
#21=ELLIPSE('',#390,13.4350288425444,9.5);
#22=ELLIPSE('',#391,13.4350288425444,9.5);
#23=CYLINDRICAL_SURFACE('',#346,10.);
#24=CYLINDRICAL_SURFACE('',#350,13.75);
#25=CYLINDRICAL_SURFACE('',#358,10.);
#26=CYLINDRICAL_SURFACE('',#362,13.75);
#27=CYLINDRICAL_SURFACE('',#369,10.);
#28=CYLINDRICAL_SURFACE('',#373,13.75);
#29=CYLINDRICAL_SURFACE('',#380,10.);
#30=CYLINDRICAL_SURFACE('',#384,13.75);
#31=CYLINDRICAL_SURFACE('',#385,9.5);
#32=CYLINDRICAL_SURFACE('',#389,9.5);
#33=CYLINDRICAL_SURFACE('',#393,9.5);
#34=CYLINDRICAL_SURFACE('',#395,9.5);
#35=PLANE('',#344);
#36=PLANE('',#356);
#37=PLANE('',#367);
#38=PLANE('',#378);
#39=PLANE('',#397);
#40=PLANE('',#398);
#41=PLANE('',#399);
#42=PLANE('',#400);
#43=FACE_BOUND('',#100,.T.);
#44=FACE_BOUND('',#102,.T.);
#45=FACE_BOUND('',#104,.T.);
#46=FACE_BOUND('',#106,.T.);
#47=FACE_BOUND('',#108,.T.);
#48=FACE_BOUND('',#110,.T.);
#49=FACE_BOUND('',#112,.T.);
#50=FACE_BOUND('',#114,.T.);
#51=FACE_BOUND('',#116,.T.);
#52=FACE_BOUND('',#118,.T.);
#53=FACE_BOUND('',#120,.T.);
#54=FACE_BOUND('',#122,.T.);
#55=FACE_BOUND('',#124,.T.);
#56=FACE_BOUND('',#126,.T.);
#57=FACE_BOUND('',#128,.T.);
#58=FACE_BOUND('',#130,.T.);
#59=FACE_BOUND('',#132,.T.);
#60=FACE_BOUND('',#134,.T.);
#61=FACE_BOUND('',#136,.T.);
#62=FACE_BOUND('',#138,.T.);
#63=FACE_BOUND('',#140,.T.);
#64=FACE_BOUND('',#142,.T.);
#65=FACE_BOUND('',#144,.T.);
#66=FACE_BOUND('',#146,.T.);
#67=FACE_BOUND('',#148,.T.);
#68=FACE_BOUND('',#150,.T.);
#69=FACE_BOUND('',#152,.T.);
#70=FACE_BOUND('',#154,.T.);
#71=FACE_OUTER_BOUND('',#99,.T.);
#72=FACE_OUTER_BOUND('',#101,.T.);
#73=FACE_OUTER_BOUND('',#103,.T.);
#74=FACE_OUTER_BOUND('',#105,.T.);
#75=FACE_OUTER_BOUND('',#107,.T.);
#76=FACE_OUTER_BOUND('',#109,.T.);
#77=FACE_OUTER_BOUND('',#111,.T.);
#78=FACE_OUTER_BOUND('',#113,.T.);
#79=FACE_OUTER_BOUND('',#115,.T.);
#80=FACE_OUTER_BOUND('',#117,.T.);
#81=FACE_OUTER_BOUND('',#119,.T.);
#82=FACE_OUTER_BOUND('',#121,.T.);
#83=FACE_OUTER_BOUND('',#123,.T.);
#84=FACE_OUTER_BOUND('',#125,.T.);
#85=FACE_OUTER_BOUND('',#127,.T.);
#86=FACE_OUTER_BOUND('',#129,.T.);
#87=FACE_OUTER_BOUND('',#131,.T.);
#88=FACE_OUTER_BOUND('',#133,.T.);
#89=FACE_OUTER_BOUND('',#135,.T.);
#90=FACE_OUTER_BOUND('',#137,.T.);
#91=FACE_OUTER_BOUND('',#139,.T.);
#92=FACE_OUTER_BOUND('',#141,.T.);
#93=FACE_OUTER_BOUND('',#143,.T.);
#94=FACE_OUTER_BOUND('',#145,.T.);
#95=FACE_OUTER_BOUND('',#147,.T.);
#96=FACE_OUTER_BOUND('',#149,.T.);
#97=FACE_OUTER_BOUND('',#151,.T.);
#98=FACE_OUTER_BOUND('',#153,.T.);
#99=EDGE_LOOP('',(#239));
#100=EDGE_LOOP('',(#240));
#101=EDGE_LOOP('',(#241));
#102=EDGE_LOOP('',(#242));
#103=EDGE_LOOP('',(#243));
#104=EDGE_LOOP('',(#244));
#105=EDGE_LOOP('',(#245));
#106=EDGE_LOOP('',(#246));
#107=EDGE_LOOP('',(#247,#248));
#108=EDGE_LOOP('',(#249));
#109=EDGE_LOOP('',(#250));
#110=EDGE_LOOP('',(#251));
#111=EDGE_LOOP('',(#252));
#112=EDGE_LOOP('',(#253));
#113=EDGE_LOOP('',(#254));
#114=EDGE_LOOP('',(#255));
#115=EDGE_LOOP('',(#256));
#116=EDGE_LOOP('',(#257));
#117=EDGE_LOOP('',(#258,#259));
#118=EDGE_LOOP('',(#260));
#119=EDGE_LOOP('',(#261));
#120=EDGE_LOOP('',(#262));
#121=EDGE_LOOP('',(#263));
#122=EDGE_LOOP('',(#264));
#123=EDGE_LOOP('',(#265));
#124=EDGE_LOOP('',(#266));
#125=EDGE_LOOP('',(#267));
#126=EDGE_LOOP('',(#268));
#127=EDGE_LOOP('',(#269,#270));
#128=EDGE_LOOP('',(#271));
#129=EDGE_LOOP('',(#272));
#130=EDGE_LOOP('',(#273));
#131=EDGE_LOOP('',(#274));
#132=EDGE_LOOP('',(#275));
#133=EDGE_LOOP('',(#276));
#134=EDGE_LOOP('',(#277));
#135=EDGE_LOOP('',(#278));
#136=EDGE_LOOP('',(#279));
#137=EDGE_LOOP('',(#280,#281));
#138=EDGE_LOOP('',(#282));
#139=EDGE_LOOP('',(#283));
#140=EDGE_LOOP('',(#284,#285));
#141=EDGE_LOOP('',(#286,#287));
#142=EDGE_LOOP('',(#288));
#143=EDGE_LOOP('',(#289));
#144=EDGE_LOOP('',(#290,#291));
#145=EDGE_LOOP('',(#292,#293));
#146=EDGE_LOOP('',(#294));
#147=EDGE_LOOP('',(#295));
#148=EDGE_LOOP('',(#296));
#149=EDGE_LOOP('',(#297));
#150=EDGE_LOOP('',(#298));
#151=EDGE_LOOP('',(#299));
#152=EDGE_LOOP('',(#300));
#153=EDGE_LOOP('',(#301));
#154=EDGE_LOOP('',(#302));
#155=CIRCLE('',#342,10.);
#156=CIRCLE('',#343,10.5);
#157=CIRCLE('',#345,13.25);
#158=CIRCLE('',#347,10.);
#159=CIRCLE('',#349,13.75);
#160=CIRCLE('',#354,10.);
#161=CIRCLE('',#355,10.5);
#162=CIRCLE('',#357,13.25);
#163=CIRCLE('',#359,10.);
#164=CIRCLE('',#361,13.75);
#165=CIRCLE('',#365,10.);
#166=CIRCLE('',#366,10.5);
#167=CIRCLE('',#368,13.25);
#168=CIRCLE('',#370,10.);
#169=CIRCLE('',#372,13.75);
#170=CIRCLE('',#376,10.);
#171=CIRCLE('',#377,10.5);
#172=CIRCLE('',#379,13.25);
#173=CIRCLE('',#381,10.);
#174=CIRCLE('',#383,13.75);
#175=CIRCLE('',#386,9.5);
#176=CIRCLE('',#392,9.5);
#177=CIRCLE('',#394,9.5);
#178=CIRCLE('',#396,9.5);
#179=VERTEX_POINT('',#525);
#180=VERTEX_POINT('',#527);
#181=VERTEX_POINT('',#530);
#182=VERTEX_POINT('',#533);
#183=VERTEX_POINT('',#536);
#184=VERTEX_POINT('',#539);
#185=VERTEX_POINT('',#540);
#186=VERTEX_POINT('',#544);
#187=VERTEX_POINT('',#546);
#188=VERTEX_POINT('',#549);
#189=VERTEX_POINT('',#552);
#190=VERTEX_POINT('',#555);
#191=VERTEX_POINT('',#560);
#192=VERTEX_POINT('',#562);
#193=VERTEX_POINT('',#565);
#194=VERTEX_POINT('',#568);
#195=VERTEX_POINT('',#571);
#196=VERTEX_POINT('',#576);
#197=VERTEX_POINT('',#578);
#198=VERTEX_POINT('',#581);
#199=VERTEX_POINT('',#584);
#200=VERTEX_POINT('',#587);
#201=VERTEX_POINT('',#591);
#202=VERTEX_POINT('',#593);
#203=VERTEX_POINT('',#594);
#204=VERTEX_POINT('',#600);
#205=VERTEX_POINT('',#603);
#206=VERTEX_POINT('',#606);
#207=EDGE_CURVE('',#179,#179,#155,.T.);
#208=EDGE_CURVE('',#180,#180,#156,.T.);
#209=EDGE_CURVE('',#181,#181,#157,.T.);
#210=EDGE_CURVE('',#182,#182,#158,.T.);
#211=EDGE_CURVE('',#183,#183,#159,.T.);
#212=EDGE_CURVE('',#184,#185,#15,.T.);
#213=EDGE_CURVE('',#185,#184,#16,.T.);
#214=EDGE_CURVE('',#186,#186,#160,.T.);
#215=EDGE_CURVE('',#187,#187,#161,.T.);
#216=EDGE_CURVE('',#188,#188,#162,.T.);
#217=EDGE_CURVE('',#189,#189,#163,.T.);
#218=EDGE_CURVE('',#190,#190,#164,.T.);
#219=EDGE_CURVE('',#184,#185,#17,.T.);
#220=EDGE_CURVE('',#191,#191,#165,.T.);
#221=EDGE_CURVE('',#192,#192,#166,.T.);
#222=EDGE_CURVE('',#193,#193,#167,.T.);
#223=EDGE_CURVE('',#194,#194,#168,.T.);
#224=EDGE_CURVE('',#195,#195,#169,.T.);
#225=EDGE_CURVE('',#185,#184,#18,.T.);
#226=EDGE_CURVE('',#196,#196,#170,.T.);
#227=EDGE_CURVE('',#197,#197,#171,.T.);
#228=EDGE_CURVE('',#198,#198,#172,.T.);
#229=EDGE_CURVE('',#199,#199,#173,.T.);
#230=EDGE_CURVE('',#200,#200,#174,.T.);
#231=EDGE_CURVE('',#201,#201,#175,.T.);
#232=EDGE_CURVE('',#202,#203,#19,.T.);
#233=EDGE_CURVE('',#203,#202,#20,.T.);
#234=EDGE_CURVE('',#203,#202,#21,.T.);
#235=EDGE_CURVE('',#202,#203,#22,.T.);
#236=EDGE_CURVE('',#204,#204,#176,.T.);
#237=EDGE_CURVE('',#205,#205,#177,.T.);
#238=EDGE_CURVE('',#206,#206,#178,.T.);
#239=ORIENTED_EDGE('',*,*,#207,.T.);
#240=ORIENTED_EDGE('',*,*,#208,.T.);
#241=ORIENTED_EDGE('',*,*,#209,.F.);
#242=ORIENTED_EDGE('',*,*,#208,.F.);
#243=ORIENTED_EDGE('',*,*,#210,.T.);
#244=ORIENTED_EDGE('',*,*,#207,.F.);
#245=ORIENTED_EDGE('',*,*,#211,.T.);
#246=ORIENTED_EDGE('',*,*,#209,.T.);
#247=ORIENTED_EDGE('',*,*,#212,.T.);
#248=ORIENTED_EDGE('',*,*,#213,.T.);
#249=ORIENTED_EDGE('',*,*,#211,.F.);
#250=ORIENTED_EDGE('',*,*,#214,.T.);
#251=ORIENTED_EDGE('',*,*,#215,.T.);
#252=ORIENTED_EDGE('',*,*,#216,.F.);
#253=ORIENTED_EDGE('',*,*,#215,.F.);
#254=ORIENTED_EDGE('',*,*,#217,.T.);
#255=ORIENTED_EDGE('',*,*,#214,.F.);
#256=ORIENTED_EDGE('',*,*,#218,.T.);
#257=ORIENTED_EDGE('',*,*,#216,.T.);
#258=ORIENTED_EDGE('',*,*,#213,.F.);
#259=ORIENTED_EDGE('',*,*,#219,.F.);
#260=ORIENTED_EDGE('',*,*,#218,.F.);
#261=ORIENTED_EDGE('',*,*,#220,.T.);
#262=ORIENTED_EDGE('',*,*,#221,.T.);
#263=ORIENTED_EDGE('',*,*,#222,.F.);
#264=ORIENTED_EDGE('',*,*,#221,.F.);
#265=ORIENTED_EDGE('',*,*,#223,.F.);
#266=ORIENTED_EDGE('',*,*,#220,.F.);
#267=ORIENTED_EDGE('',*,*,#224,.T.);
#268=ORIENTED_EDGE('',*,*,#222,.T.);
#269=ORIENTED_EDGE('',*,*,#225,.T.);
#270=ORIENTED_EDGE('',*,*,#219,.T.);
#271=ORIENTED_EDGE('',*,*,#224,.F.);
#272=ORIENTED_EDGE('',*,*,#226,.T.);
#273=ORIENTED_EDGE('',*,*,#227,.T.);
#274=ORIENTED_EDGE('',*,*,#228,.F.);
#275=ORIENTED_EDGE('',*,*,#227,.F.);
#276=ORIENTED_EDGE('',*,*,#229,.F.);
#277=ORIENTED_EDGE('',*,*,#226,.F.);
#278=ORIENTED_EDGE('',*,*,#230,.T.);
#279=ORIENTED_EDGE('',*,*,#228,.T.);
#280=ORIENTED_EDGE('',*,*,#225,.F.);
#281=ORIENTED_EDGE('',*,*,#212,.F.);
#282=ORIENTED_EDGE('',*,*,#230,.F.);
#283=ORIENTED_EDGE('',*,*,#231,.F.);
#284=ORIENTED_EDGE('',*,*,#232,.F.);
#285=ORIENTED_EDGE('',*,*,#233,.F.);
#286=ORIENTED_EDGE('',*,*,#234,.F.);
#287=ORIENTED_EDGE('',*,*,#235,.F.);
#288=ORIENTED_EDGE('',*,*,#236,.F.);
#289=ORIENTED_EDGE('',*,*,#237,.F.);
#290=ORIENTED_EDGE('',*,*,#235,.T.);
#291=ORIENTED_EDGE('',*,*,#233,.T.);
#292=ORIENTED_EDGE('',*,*,#234,.T.);
#293=ORIENTED_EDGE('',*,*,#232,.T.);
#294=ORIENTED_EDGE('',*,*,#238,.F.);
#295=ORIENTED_EDGE('',*,*,#229,.T.);
#296=ORIENTED_EDGE('',*,*,#238,.T.);
#297=ORIENTED_EDGE('',*,*,#217,.F.);
#298=ORIENTED_EDGE('',*,*,#237,.T.);
#299=ORIENTED_EDGE('',*,*,#223,.T.);
#300=ORIENTED_EDGE('',*,*,#236,.T.);
#301=ORIENTED_EDGE('',*,*,#210,.F.);
#302=ORIENTED_EDGE('',*,*,#231,.T.);
#303=TOROIDAL_SURFACE('',#341,10.5,0.5);
#304=TOROIDAL_SURFACE('',#348,13.25,0.5);
#305=TOROIDAL_SURFACE('',#353,10.5,0.5);
#306=TOROIDAL_SURFACE('',#360,13.25,0.5);
#307=TOROIDAL_SURFACE('',#364,10.5,0.5);
#308=TOROIDAL_SURFACE('',#371,13.25,0.5);
#309=TOROIDAL_SURFACE('',#375,10.5,0.5);
#310=TOROIDAL_SURFACE('',#382,13.25,0.5);
#311=ADVANCED_FACE('',(#71,#43),#303,.T.);
#312=ADVANCED_FACE('',(#72,#44),#35,.F.);
#313=ADVANCED_FACE('',(#73,#45),#23,.F.);
#314=ADVANCED_FACE('',(#74,#46),#304,.T.);
#315=ADVANCED_FACE('',(#75,#47),#24,.T.);
#316=ADVANCED_FACE('',(#76,#48),#305,.T.);
#317=ADVANCED_FACE('',(#77,#49),#36,.F.);
#318=ADVANCED_FACE('',(#78,#50),#25,.F.);
#319=ADVANCED_FACE('',(#79,#51),#306,.T.);
#320=ADVANCED_FACE('',(#80,#52),#26,.T.);
#321=ADVANCED_FACE('',(#81,#53),#307,.T.);
#322=ADVANCED_FACE('',(#82,#54),#37,.T.);
#323=ADVANCED_FACE('',(#83,#55),#27,.F.);
#324=ADVANCED_FACE('',(#84,#56),#308,.T.);
#325=ADVANCED_FACE('',(#85,#57),#28,.T.);
#326=ADVANCED_FACE('',(#86,#58),#309,.T.);
#327=ADVANCED_FACE('',(#87,#59),#38,.T.);
#328=ADVANCED_FACE('',(#88,#60),#29,.F.);
#329=ADVANCED_FACE('',(#89,#61),#310,.T.);
#330=ADVANCED_FACE('',(#90,#62),#30,.T.);
#331=ADVANCED_FACE('',(#91,#63),#31,.F.);
#332=ADVANCED_FACE('',(#92,#64),#32,.F.);
#333=ADVANCED_FACE('',(#93,#65),#33,.F.);
#334=ADVANCED_FACE('',(#94,#66),#34,.F.);
#335=ADVANCED_FACE('',(#95,#67),#39,.T.);
#336=ADVANCED_FACE('',(#96,#68),#40,.F.);
#337=ADVANCED_FACE('',(#97,#69),#41,.T.);
#338=ADVANCED_FACE('',(#98,#70),#42,.F.);
#339=CLOSED_SHELL('',(#311,#312,#313,#314,#315,#316,#317,#318,#319,#320,
#321,#322,#323,#324,#325,#326,#327,#328,#329,#330,#331,#332,#333,#334,#335,
#336,#337,#338));
#340=AXIS2_PLACEMENT_3D('placement',#523,#401,#402);
#341=AXIS2_PLACEMENT_3D('',#524,#403,#404);
#342=AXIS2_PLACEMENT_3D('',#526,#405,#406);
#343=AXIS2_PLACEMENT_3D('',#528,#407,#408);
#344=AXIS2_PLACEMENT_3D('',#529,#409,#410);
#345=AXIS2_PLACEMENT_3D('',#531,#411,#412);
#346=AXIS2_PLACEMENT_3D('',#532,#413,#414);
#347=AXIS2_PLACEMENT_3D('',#534,#415,#416);
#348=AXIS2_PLACEMENT_3D('',#535,#417,#418);
#349=AXIS2_PLACEMENT_3D('',#537,#419,#420);
#350=AXIS2_PLACEMENT_3D('',#538,#421,#422);
#351=AXIS2_PLACEMENT_3D('',#541,#423,#424);
#352=AXIS2_PLACEMENT_3D('',#542,#425,#426);
#353=AXIS2_PLACEMENT_3D('',#543,#427,#428);
#354=AXIS2_PLACEMENT_3D('',#545,#429,#430);
#355=AXIS2_PLACEMENT_3D('',#547,#431,#432);
#356=AXIS2_PLACEMENT_3D('',#548,#433,#434);
#357=AXIS2_PLACEMENT_3D('',#550,#435,#436);
#358=AXIS2_PLACEMENT_3D('',#551,#437,#438);
#359=AXIS2_PLACEMENT_3D('',#553,#439,#440);
#360=AXIS2_PLACEMENT_3D('',#554,#441,#442);
#361=AXIS2_PLACEMENT_3D('',#556,#443,#444);
#362=AXIS2_PLACEMENT_3D('',#557,#445,#446);
#363=AXIS2_PLACEMENT_3D('',#558,#447,#448);
#364=AXIS2_PLACEMENT_3D('',#559,#449,#450);
#365=AXIS2_PLACEMENT_3D('',#561,#451,#452);
#366=AXIS2_PLACEMENT_3D('',#563,#453,#454);
#367=AXIS2_PLACEMENT_3D('',#564,#455,#456);
#368=AXIS2_PLACEMENT_3D('',#566,#457,#458);
#369=AXIS2_PLACEMENT_3D('',#567,#459,#460);
#370=AXIS2_PLACEMENT_3D('',#569,#461,#462);
#371=AXIS2_PLACEMENT_3D('',#570,#463,#464);
#372=AXIS2_PLACEMENT_3D('',#572,#465,#466);
#373=AXIS2_PLACEMENT_3D('',#573,#467,#468);
#374=AXIS2_PLACEMENT_3D('',#574,#469,#470);
#375=AXIS2_PLACEMENT_3D('',#575,#471,#472);
#376=AXIS2_PLACEMENT_3D('',#577,#473,#474);
#377=AXIS2_PLACEMENT_3D('',#579,#475,#476);
#378=AXIS2_PLACEMENT_3D('',#580,#477,#478);
#379=AXIS2_PLACEMENT_3D('',#582,#479,#480);
#380=AXIS2_PLACEMENT_3D('',#583,#481,#482);
#381=AXIS2_PLACEMENT_3D('',#585,#483,#484);
#382=AXIS2_PLACEMENT_3D('',#586,#485,#486);
#383=AXIS2_PLACEMENT_3D('',#588,#487,#488);
#384=AXIS2_PLACEMENT_3D('',#589,#489,#490);
#385=AXIS2_PLACEMENT_3D('',#590,#491,#492);
#386=AXIS2_PLACEMENT_3D('',#592,#493,#494);
#387=AXIS2_PLACEMENT_3D('',#595,#495,#496);
#388=AXIS2_PLACEMENT_3D('',#596,#497,#498);
#389=AXIS2_PLACEMENT_3D('',#597,#499,#500);
#390=AXIS2_PLACEMENT_3D('',#598,#501,#502);
#391=AXIS2_PLACEMENT_3D('',#599,#503,#504);
#392=AXIS2_PLACEMENT_3D('',#601,#505,#506);
#393=AXIS2_PLACEMENT_3D('',#602,#507,#508);
#394=AXIS2_PLACEMENT_3D('',#604,#509,#510);
#395=AXIS2_PLACEMENT_3D('',#605,#511,#512);
#396=AXIS2_PLACEMENT_3D('',#607,#513,#514);
#397=AXIS2_PLACEMENT_3D('',#608,#515,#516);
#398=AXIS2_PLACEMENT_3D('',#609,#517,#518);
#399=AXIS2_PLACEMENT_3D('',#610,#519,#520);
#400=AXIS2_PLACEMENT_3D('',#611,#521,#522);
#401=DIRECTION('axis',(0.,0.,1.));
#402=DIRECTION('refdir',(1.,0.,0.));
#403=DIRECTION('center_axis',(0.,0.,1.));
#404=DIRECTION('ref_axis',(1.,0.,0.));
#405=DIRECTION('center_axis',(0.,0.,1.));
#406=DIRECTION('ref_axis',(1.,0.,0.));
#407=DIRECTION('center_axis',(0.,0.,-1.));
#408=DIRECTION('ref_axis',(1.,0.,0.));
#409=DIRECTION('center_axis',(0.,0.,1.));
#410=DIRECTION('ref_axis',(1.,0.,0.));
#411=DIRECTION('center_axis',(0.,0.,1.));
#412=DIRECTION('ref_axis',(-1.,0.,0.));
#413=DIRECTION('center_axis',(0.,0.,1.));
#414=DIRECTION('ref_axis',(1.,0.,0.));
#415=DIRECTION('center_axis',(0.,0.,1.));
#416=DIRECTION('ref_axis',(1.,0.,0.));
#417=DIRECTION('center_axis',(0.,0.,-1.));
#418=DIRECTION('ref_axis',(-1.,0.,0.));
#419=DIRECTION('center_axis',(0.,0.,-1.));
#420=DIRECTION('ref_axis',(-1.,0.,0.));
#421=DIRECTION('center_axis',(0.,0.,1.));
#422=DIRECTION('ref_axis',(-1.,0.,0.));
#423=DIRECTION('center_axis',(-0.707106781186548,0.,-0.707106781186547));
#424=DIRECTION('ref_axis',(0.707106781186547,0.,-0.707106781186548));
#425=DIRECTION('center_axis',(0.707106781186548,0.,-0.707106781186547));
#426=DIRECTION('ref_axis',(-0.707106781186547,0.,-0.707106781186548));
#427=DIRECTION('center_axis',(1.,0.,0.));
#428=DIRECTION('ref_axis',(0.,0.,-1.));
#429=DIRECTION('center_axis',(1.,0.,0.));
#430=DIRECTION('ref_axis',(0.,0.,-1.));
#431=DIRECTION('center_axis',(-1.,0.,0.));
#432=DIRECTION('ref_axis',(0.,0.,-1.));
#433=DIRECTION('center_axis',(1.,0.,0.));
#434=DIRECTION('ref_axis',(0.,0.,-1.));
#435=DIRECTION('center_axis',(1.,0.,0.));
#436=DIRECTION('ref_axis',(0.,-1.,0.));
#437=DIRECTION('center_axis',(1.,0.,0.));
#438=DIRECTION('ref_axis',(0.,0.,-1.));
#439=DIRECTION('center_axis',(1.,0.,0.));
#440=DIRECTION('ref_axis',(0.,0.,-1.));
#441=DIRECTION('center_axis',(-1.,0.,0.));
#442=DIRECTION('ref_axis',(0.,0.,1.));
#443=DIRECTION('center_axis',(-1.,0.,0.));
#444=DIRECTION('ref_axis',(0.,-1.,0.));
#445=DIRECTION('center_axis',(1.,0.,0.));
#446=DIRECTION('ref_axis',(0.,-1.,0.));
#447=DIRECTION('center_axis',(0.707106781186548,0.,0.707106781186547));
#448=DIRECTION('ref_axis',(0.707106781186547,0.,-0.707106781186548));
#449=DIRECTION('center_axis',(0.,0.,-1.));
#450=DIRECTION('ref_axis',(-1.,0.,0.));
#451=DIRECTION('center_axis',(0.,0.,-1.));
#452=DIRECTION('ref_axis',(1.,0.,0.));
#453=DIRECTION('center_axis',(0.,0.,1.));
#454=DIRECTION('ref_axis',(1.,0.,0.));
#455=DIRECTION('center_axis',(0.,0.,1.));
#456=DIRECTION('ref_axis',(1.,0.,0.));
#457=DIRECTION('center_axis',(0.,0.,-1.));
#458=DIRECTION('ref_axis',(-1.,0.,0.));
#459=DIRECTION('center_axis',(0.,0.,1.));
#460=DIRECTION('ref_axis',(1.,0.,0.));
#461=DIRECTION('center_axis',(0.,0.,1.));
#462=DIRECTION('ref_axis',(1.,0.,0.));
#463=DIRECTION('center_axis',(0.,0.,1.));
#464=DIRECTION('ref_axis',(1.,0.,0.));
#465=DIRECTION('center_axis',(0.,0.,1.));
#466=DIRECTION('ref_axis',(-1.,0.,0.));
#467=DIRECTION('center_axis',(0.,0.,1.));
#468=DIRECTION('ref_axis',(-1.,0.,0.));
#469=DIRECTION('center_axis',(-0.707106781186548,0.,0.707106781186547));
#470=DIRECTION('ref_axis',(-0.707106781186547,0.,-0.707106781186548));
#471=DIRECTION('center_axis',(-1.,0.,0.));
#472=DIRECTION('ref_axis',(0.,0.,1.));
#473=DIRECTION('center_axis',(-1.,0.,0.));
#474=DIRECTION('ref_axis',(0.,0.,-1.));
#475=DIRECTION('center_axis',(1.,0.,0.));
#476=DIRECTION('ref_axis',(0.,0.,-1.));
#477=DIRECTION('center_axis',(1.,0.,0.));
#478=DIRECTION('ref_axis',(0.,0.,-1.));
#479=DIRECTION('center_axis',(-1.,0.,0.));
#480=DIRECTION('ref_axis',(0.,-1.,0.));
#481=DIRECTION('center_axis',(1.,0.,0.));
#482=DIRECTION('ref_axis',(0.,0.,-1.));
#483=DIRECTION('center_axis',(1.,0.,0.));
#484=DIRECTION('ref_axis',(0.,0.,-1.));
#485=DIRECTION('center_axis',(1.,0.,0.));
#486=DIRECTION('ref_axis',(0.,0.,-1.));
#487=DIRECTION('center_axis',(1.,0.,0.));
#488=DIRECTION('ref_axis',(0.,-1.,0.));
#489=DIRECTION('center_axis',(1.,0.,0.));
#490=DIRECTION('ref_axis',(0.,-1.,0.));
#491=DIRECTION('center_axis',(0.,0.,-1.));
#492=DIRECTION('ref_axis',(-1.,0.,0.));
#493=DIRECTION('center_axis',(0.,0.,1.));
#494=DIRECTION('ref_axis',(-1.,0.,0.));
#495=DIRECTION('center_axis',(-0.707106781186547,0.,-0.707106781186548));
#496=DIRECTION('ref_axis',(-0.707106781186547,0.,0.707106781186547));
#497=DIRECTION('center_axis',(0.707106781186547,0.,-0.707106781186548));
#498=DIRECTION('ref_axis',(-0.707106781186547,0.,-0.707106781186547));
#499=DIRECTION('center_axis',(0.,0.,-1.));
#500=DIRECTION('ref_axis',(-1.,0.,0.));
#501=DIRECTION('center_axis',(-0.707106781186547,0.,0.707106781186548));
#502=DIRECTION('ref_axis',(-0.707106781186547,0.,-0.707106781186547));
#503=DIRECTION('center_axis',(0.707106781186547,0.,0.707106781186548));
#504=DIRECTION('ref_axis',(-0.707106781186547,0.,0.707106781186547));
#505=DIRECTION('center_axis',(0.,0.,-1.));
#506=DIRECTION('ref_axis',(-1.,0.,0.));
#507=DIRECTION('center_axis',(-1.,0.,0.));
#508=DIRECTION('ref_axis',(0.,0.,1.));
#509=DIRECTION('center_axis',(1.,0.,0.));
#510=DIRECTION('ref_axis',(0.,0.,1.));
#511=DIRECTION('center_axis',(-1.,0.,0.));
#512=DIRECTION('ref_axis',(0.,0.,1.));
#513=DIRECTION('center_axis',(-1.,0.,0.));
#514=DIRECTION('ref_axis',(0.,0.,1.));
#515=DIRECTION('center_axis',(1.,0.,0.));
#516=DIRECTION('ref_axis',(0.,0.,-1.));
#517=DIRECTION('center_axis',(1.,0.,0.));
#518=DIRECTION('ref_axis',(0.,0.,-1.));
#519=DIRECTION('center_axis',(0.,0.,1.));
#520=DIRECTION('ref_axis',(1.,0.,0.));
#521=DIRECTION('center_axis',(0.,0.,1.));
#522=DIRECTION('ref_axis',(1.,0.,0.));
#523=CARTESIAN_POINT('',(0.,0.,0.));
#524=CARTESIAN_POINT('Origin',(0.,0.,-26.5));
#525=CARTESIAN_POINT('',(-10.,-1.22464679914735E-15,-26.5));
#526=CARTESIAN_POINT('Origin',(0.,0.,-26.5));
#527=CARTESIAN_POINT('',(-10.5,1.28587913910472E-15,-27.));
#528=CARTESIAN_POINT('Origin',(0.,0.,-27.));
#529=CARTESIAN_POINT('Origin',(-1.21690401506912E-15,0.,-27.));
#530=CARTESIAN_POINT('',(13.25,1.62265700887024E-15,-27.));
#531=CARTESIAN_POINT('Origin',(0.,0.,-27.));
#532=CARTESIAN_POINT('Origin',(0.,0.,-27.));
#533=CARTESIAN_POINT('',(-10.,1.22464679914735E-15,-11.));
#534=CARTESIAN_POINT('Origin',(0.,0.,-11.));
#535=CARTESIAN_POINT('Origin',(0.,0.,-26.5));
#536=CARTESIAN_POINT('',(13.75,-1.68388934882761E-15,-26.5));
#537=CARTESIAN_POINT('Origin',(0.,0.,-26.5));
#538=CARTESIAN_POINT('Origin',(0.,0.,0.));
#539=CARTESIAN_POINT('',(0.,13.75,0.));
#540=CARTESIAN_POINT('',(0.,-13.75,0.));
#541=CARTESIAN_POINT('Origin',(0.,0.,0.));
#542=CARTESIAN_POINT('Origin',(0.,0.,0.));
#543=CARTESIAN_POINT('Origin',(-26.5,0.,0.));
#544=CARTESIAN_POINT('',(-26.5,-1.22464679914735E-15,10.));
#545=CARTESIAN_POINT('Origin',(-26.5,0.,0.));
#546=CARTESIAN_POINT('',(-27.,1.28587913910472E-15,10.5));
#547=CARTESIAN_POINT('Origin',(-27.,0.,0.));
#548=CARTESIAN_POINT('Origin',(-27.,-6.7861406373571E-16,0.));
#549=CARTESIAN_POINT('',(-27.,13.25,1.62265700887024E-15));
#550=CARTESIAN_POINT('Origin',(-27.,0.,0.));
#551=CARTESIAN_POINT('Origin',(-27.,0.,0.));
#552=CARTESIAN_POINT('',(-11.,1.22464679914735E-15,10.));
#553=CARTESIAN_POINT('Origin',(-11.,0.,0.));
#554=CARTESIAN_POINT('Origin',(-26.5,0.,0.));
#555=CARTESIAN_POINT('',(-26.5,13.75,-1.68388934882761E-15));
#556=CARTESIAN_POINT('Origin',(-26.5,0.,0.));
#557=CARTESIAN_POINT('Origin',(0.,0.,0.));
#558=CARTESIAN_POINT('Origin',(0.,0.,0.));
#559=CARTESIAN_POINT('Origin',(0.,0.,26.5));
#560=CARTESIAN_POINT('',(-10.,1.22464679914735E-15,26.5));
#561=CARTESIAN_POINT('Origin',(0.,0.,26.5));
#562=CARTESIAN_POINT('',(-10.5,-1.28587913910472E-15,27.));
#563=CARTESIAN_POINT('Origin',(0.,0.,27.));
#564=CARTESIAN_POINT('Origin',(-1.21690401506912E-15,0.,27.));
#565=CARTESIAN_POINT('',(13.25,-1.62265700887024E-15,27.));
#566=CARTESIAN_POINT('Origin',(0.,0.,27.));
#567=CARTESIAN_POINT('Origin',(0.,0.,27.));
#568=CARTESIAN_POINT('',(-10.,1.22464679914735E-15,11.));
#569=CARTESIAN_POINT('Origin',(0.,0.,11.));
#570=CARTESIAN_POINT('Origin',(0.,0.,26.5));
#571=CARTESIAN_POINT('',(13.75,1.68388934882761E-15,26.5));
#572=CARTESIAN_POINT('Origin',(0.,0.,26.5));
#573=CARTESIAN_POINT('Origin',(0.,0.,0.));
#574=CARTESIAN_POINT('Origin',(0.,0.,0.));
#575=CARTESIAN_POINT('Origin',(26.5,0.,0.));
#576=CARTESIAN_POINT('',(26.5,1.22464679914735E-15,10.));
#577=CARTESIAN_POINT('Origin',(26.5,0.,0.));
#578=CARTESIAN_POINT('',(27.,-1.28587913910472E-15,10.5));
#579=CARTESIAN_POINT('Origin',(27.,0.,0.));
#580=CARTESIAN_POINT('Origin',(27.,-6.7861406373571E-16,0.));
#581=CARTESIAN_POINT('',(27.,13.25,-1.62265700887024E-15));
#582=CARTESIAN_POINT('Origin',(27.,0.,0.));
#583=CARTESIAN_POINT('Origin',(27.,0.,0.));
#584=CARTESIAN_POINT('',(11.,1.22464679914735E-15,10.));
#585=CARTESIAN_POINT('Origin',(11.,0.,0.));
#586=CARTESIAN_POINT('Origin',(26.5,0.,0.));
#587=CARTESIAN_POINT('',(26.5,13.75,1.68388934882761E-15));
#588=CARTESIAN_POINT('Origin',(26.5,0.,0.));
#589=CARTESIAN_POINT('Origin',(0.,0.,0.));
#590=CARTESIAN_POINT('Origin',(0.,0.,11.));
#591=CARTESIAN_POINT('',(9.5,1.16341445918999E-15,-11.));
#592=CARTESIAN_POINT('Origin',(0.,0.,-11.));
#593=CARTESIAN_POINT('',(0.,9.5,0.));
#594=CARTESIAN_POINT('',(0.,-9.5,0.));
#595=CARTESIAN_POINT('Origin',(0.,0.,0.));
#596=CARTESIAN_POINT('Origin',(0.,0.,0.));
#597=CARTESIAN_POINT('Origin',(0.,0.,11.));
#598=CARTESIAN_POINT('Origin',(0.,0.,0.));
#599=CARTESIAN_POINT('Origin',(0.,0.,0.));
#600=CARTESIAN_POINT('',(9.5,1.16341445918999E-15,11.));
#601=CARTESIAN_POINT('Origin',(0.,0.,11.));
#602=CARTESIAN_POINT('Origin',(11.,0.,0.));
#603=CARTESIAN_POINT('',(-11.,1.16341445918999E-15,-9.5));
#604=CARTESIAN_POINT('Origin',(-11.,0.,0.));
#605=CARTESIAN_POINT('Origin',(11.,0.,0.));
#606=CARTESIAN_POINT('',(11.,1.16341445918999E-15,-9.5));
#607=CARTESIAN_POINT('Origin',(11.,0.,0.));
#608=CARTESIAN_POINT('Origin',(11.,0.,-4.72128241470665E-16));
#609=CARTESIAN_POINT('Origin',(-11.,0.,-4.72128241470665E-16));
#610=CARTESIAN_POINT('Origin',(4.72128241470665E-16,0.,11.));
#611=CARTESIAN_POINT('Origin',(4.72128241470665E-16,0.,-11.));
#612=UNCERTAINTY_MEASURE_WITH_UNIT(LENGTH_MEASURE(0.01),#616,
'DISTANCE_ACCURACY_VALUE',
'Maximum model space distance between geometric entities at asserted c
onnectivities');
#613=UNCERTAINTY_MEASURE_WITH_UNIT(LENGTH_MEASURE(1.E-6),#616,
'DISTANCE_ACCURACY_VALUE',
'Maximum model space distance between geometric entities at asserted c
onnectivities');
#614=(
GEOMETRIC_REPRESENTATION_CONTEXT(3)
GLOBAL_UNCERTAINTY_ASSIGNED_CONTEXT((#612))
GLOBAL_UNIT_ASSIGNED_CONTEXT((#616,#619,#617))
REPRESENTATION_CONTEXT('','3D')
);
#615=(
GEOMETRIC_REPRESENTATION_CONTEXT(3)
GLOBAL_UNCERTAINTY_ASSIGNED_CONTEXT((#613))
GLOBAL_UNIT_ASSIGNED_CONTEXT((#616,#619,#617))
REPRESENTATION_CONTEXT('','3D')
);
#616=(
LENGTH_UNIT()
NAMED_UNIT(*)
SI_UNIT(.MILLI.,.METRE.)
);
#617=(
NAMED_UNIT(*)
SI_UNIT($,.STERADIAN.)
SOLID_ANGLE_UNIT()
);
#618=DIMENSIONAL_EXPONENTS(0.,0.,0.,0.,0.,0.,0.);
#619=(
CONVERSION_BASED_UNIT('degree',#621)
NAMED_UNIT(#618)
PLANE_ANGLE_UNIT()
);
#620=(
NAMED_UNIT(*)
PLANE_ANGLE_UNIT()
SI_UNIT($,.RADIAN.)
);
#621=PLANE_ANGLE_MEASURE_WITH_UNIT(PLANE_ANGLE_MEASURE(0.01745329252),#620);
#622=SHAPE_DEFINITION_REPRESENTATION(#623,#624);
#623=PRODUCT_DEFINITION_SHAPE('',$,#626);
#624=SHAPE_REPRESENTATION('',(#340),#614);
#625=PRODUCT_DEFINITION_CONTEXT('part definition',#630,'design');
#626=PRODUCT_DEFINITION('CR300200','CR300200',#627,#625);
#627=PRODUCT_DEFINITION_FORMATION('',$,#632);
#628=PRODUCT_RELATED_PRODUCT_CATEGORY('CR300200','CR300200',(#632));
#629=APPLICATION_PROTOCOL_DEFINITION('international standard',
'automotive_design',2009,#630);
#630=APPLICATION_CONTEXT(
'Core Data for Automotive Mechanical Design Process');
#631=PRODUCT_CONTEXT('part definition',#630,'mechanical');
#632=PRODUCT('CR300200','CR300200',$,(#631));
#633=PRESENTATION_STYLE_ASSIGNMENT((#634));
#634=SURFACE_STYLE_USAGE(.BOTH.,#635);
#635=SURFACE_SIDE_STYLE('',(#636));
#636=SURFACE_STYLE_FILL_AREA(#637);
#637=FILL_AREA_STYLE('',(#638));
#638=FILL_AREA_STYLE_COLOUR('',#639);
#639=COLOUR_RGB('',0.8,0.8,0.8);
ENDSEC;
END-ISO-10303-21;
