ISO-10303-21;
HEADER;
/* Generated by software containing ST-Developer
 * from STEP Tools, Inc. (www.steptools.com) 
 */

FILE_DESCRIPTION(
/* description */ (''),
/* implementation_level */ '2;1');

FILE_NAME(
/* name */ 'C:\\Users\\Gabriele\\Desktop\\catalogo\\TR40\\TR40050B.stp',

/* time_stamp */ '2016-10-17T15:33:46+02:00',
/* author */ ('Gabriele'),
/* organization */ (''),
/* preprocessor_version */ 'ST-DEVELOPER v16.5',
/* originating_system */ 'Autodesk Inventor 2017',
/* authorisation */ '');

FILE_SCHEMA (('AUTOMOTIVE_DESIGN { 1 0 10303 214 3 1 1 }'));
ENDSEC;

DATA;
#10=MECHANICAL_DESIGN_GEOMETRIC_PRESENTATION_REPRESENTATION('',(#13),#433);
#11=SHAPE_REPRESENTATION_RELATIONSHIP('SRR','None',#442,#12);
#12=ADVANCED_BREP_SHAPE_REPRESENTATION('',(#14),#432);
#13=STYLED_ITEM('',(#451),#14);
#14=MANIFOLD_SOLID_BREP('Solido1',#200);
#15=B_SPLINE_CURVE_WITH_KNOTS('',3,(#333,#334,#335,#336,#337,#338,#339,
#340,#341,#342,#343,#344,#345,#346,#347,#348,#349,#350,#351,#352,#353,#354,
#355,#356,#357,#358,#359,#360,#361,#362,#363,#364,#365,#366),
 .UNSPECIFIED.,.T.,.F.,(4,2,2,2,2,2,2,2,2,2,2,2,2,2,2,2,4),(0.,0.352483930758996,
0.704967861517993,1.05716136690537,1.40935487229274,1.76154837768012,2.11374188306749,
2.46622581382649,2.81870974458549,3.17119367534448,3.52367760610348,3.87587111149085,
4.22806461687823,4.5802581222656,4.93245162765298,5.28493555841198,5.63741948917097),
 .UNSPECIFIED.);
#16=B_SPLINE_CURVE_WITH_KNOTS('',3,(#377,#378,#379,#380,#381,#382,#383,
#384,#385,#386,#387,#388,#389,#390,#391,#392,#393,#394,#395,#396,#397,#398,
#399,#400,#401,#402,#403,#404,#405,#406,#407,#408,#409,#410,#411,#412,#413,
#414,#415,#416,#417,#418,#419,#420,#421,#422,#423,#424,#425,#426),
 .UNSPECIFIED.,.T.,.F.,(4,2,2,2,2,2,2,2,2,2,2,2,2,2,2,2,2,2,2,2,2,2,2,2,
4),(0.,0.268368271254419,0.536736542508838,1.07347308501768,1.60921515633331,
1.87708619199112,2.14495722764894,2.41282826330675,2.68069929896457,3.2164413702802,
3.75317791278904,4.02154618404346,4.28991445529788,4.5582827265523,4.82665099780672,
5.36338754031555,5.89912961163119,6.167000647289,6.43487168294682,6.70274271860463,
6.97061375426245,7.50635582557808,8.04309236808692,8.31146063934134,8.57982891059576),
 .UNSPECIFIED.);
#17=PLANE('',#207);
#18=PLANE('',#214);
#19=PLANE('',#221);
#20=PLANE('',#228);
#21=PLANE('',#231);
#22=PLANE('',#232);
#23=CYLINDRICAL_SURFACE('',#205,25.);
#24=CYLINDRICAL_SURFACE('',#212,25.);
#25=CYLINDRICAL_SURFACE('',#219,10.);
#26=CYLINDRICAL_SURFACE('',#223,9.25);
#27=CYLINDRICAL_SURFACE('',#225,24.25);
#28=CYLINDRICAL_SURFACE('',#229,14.);
#29=CYLINDRICAL_SURFACE('',#230,30.5);
#30=FACE_BOUND('',#65,.T.);
#31=FACE_BOUND('',#67,.T.);
#32=FACE_BOUND('',#69,.T.);
#33=FACE_BOUND('',#71,.T.);
#34=FACE_BOUND('',#73,.T.);
#35=FACE_BOUND('',#75,.T.);
#36=FACE_BOUND('',#77,.T.);
#37=FACE_BOUND('',#79,.T.);
#38=FACE_BOUND('',#81,.T.);
#39=FACE_BOUND('',#83,.T.);
#40=FACE_BOUND('',#85,.T.);
#41=FACE_BOUND('',#86,.T.);
#42=FACE_BOUND('',#88,.T.);
#43=FACE_BOUND('',#90,.T.);
#44=FACE_BOUND('',#92,.T.);
#45=FACE_BOUND('',#93,.T.);
#46=FACE_BOUND('',#95,.T.);
#47=FACE_BOUND('',#97,.T.);
#48=FACE_OUTER_BOUND('',#64,.T.);
#49=FACE_OUTER_BOUND('',#66,.T.);
#50=FACE_OUTER_BOUND('',#68,.T.);
#51=FACE_OUTER_BOUND('',#70,.T.);
#52=FACE_OUTER_BOUND('',#72,.T.);
#53=FACE_OUTER_BOUND('',#74,.T.);
#54=FACE_OUTER_BOUND('',#76,.T.);
#55=FACE_OUTER_BOUND('',#78,.T.);
#56=FACE_OUTER_BOUND('',#80,.T.);
#57=FACE_OUTER_BOUND('',#82,.T.);
#58=FACE_OUTER_BOUND('',#84,.T.);
#59=FACE_OUTER_BOUND('',#87,.T.);
#60=FACE_OUTER_BOUND('',#89,.T.);
#61=FACE_OUTER_BOUND('',#91,.T.);
#62=FACE_OUTER_BOUND('',#94,.T.);
#63=FACE_OUTER_BOUND('',#96,.T.);
#64=EDGE_LOOP('',(#147));
#65=EDGE_LOOP('',(#148));
#66=EDGE_LOOP('',(#149));
#67=EDGE_LOOP('',(#150));
#68=EDGE_LOOP('',(#151));
#69=EDGE_LOOP('',(#152));
#70=EDGE_LOOP('',(#153));
#71=EDGE_LOOP('',(#154));
#72=EDGE_LOOP('',(#155));
#73=EDGE_LOOP('',(#156));
#74=EDGE_LOOP('',(#157));
#75=EDGE_LOOP('',(#158));
#76=EDGE_LOOP('',(#159));
#77=EDGE_LOOP('',(#160));
#78=EDGE_LOOP('',(#161));
#79=EDGE_LOOP('',(#162));
#80=EDGE_LOOP('',(#163));
#81=EDGE_LOOP('',(#164));
#82=EDGE_LOOP('',(#165));
#83=EDGE_LOOP('',(#166));
#84=EDGE_LOOP('',(#167));
#85=EDGE_LOOP('',(#168));
#86=EDGE_LOOP('',(#169));
#87=EDGE_LOOP('',(#170));
#88=EDGE_LOOP('',(#171));
#89=EDGE_LOOP('',(#172));
#90=EDGE_LOOP('',(#173));
#91=EDGE_LOOP('',(#174));
#92=EDGE_LOOP('',(#175));
#93=EDGE_LOOP('',(#176));
#94=EDGE_LOOP('',(#177));
#95=EDGE_LOOP('',(#178));
#96=EDGE_LOOP('',(#179));
#97=EDGE_LOOP('',(#180));
#98=CIRCLE('',#203,25.);
#99=CIRCLE('',#204,25.5);
#100=CIRCLE('',#206,25.);
#101=CIRCLE('',#208,30.5);
#102=CIRCLE('',#210,25.);
#103=CIRCLE('',#211,25.5);
#104=CIRCLE('',#213,25.);
#105=CIRCLE('',#215,30.5);
#106=CIRCLE('',#217,10.);
#107=CIRCLE('',#218,10.5);
#108=CIRCLE('',#220,10.);
#109=CIRCLE('',#222,14.);
#110=CIRCLE('',#224,9.25);
#111=CIRCLE('',#226,24.25);
#112=CIRCLE('',#227,24.25);
#113=VERTEX_POINT('',#299);
#114=VERTEX_POINT('',#301);
#115=VERTEX_POINT('',#304);
#116=VERTEX_POINT('',#307);
#117=VERTEX_POINT('',#310);
#118=VERTEX_POINT('',#312);
#119=VERTEX_POINT('',#315);
#120=VERTEX_POINT('',#318);
#121=VERTEX_POINT('',#321);
#122=VERTEX_POINT('',#323);
#123=VERTEX_POINT('',#326);
#124=VERTEX_POINT('',#329);
#125=VERTEX_POINT('',#332);
#126=VERTEX_POINT('',#367);
#127=VERTEX_POINT('',#370);
#128=VERTEX_POINT('',#372);
#129=VERTEX_POINT('',#376);
#130=EDGE_CURVE('',#113,#113,#98,.T.);
#131=EDGE_CURVE('',#114,#114,#99,.T.);
#132=EDGE_CURVE('',#115,#115,#100,.T.);
#133=EDGE_CURVE('',#116,#116,#101,.T.);
#134=EDGE_CURVE('',#117,#117,#102,.T.);
#135=EDGE_CURVE('',#118,#118,#103,.T.);
#136=EDGE_CURVE('',#119,#119,#104,.T.);
#137=EDGE_CURVE('',#120,#120,#105,.T.);
#138=EDGE_CURVE('',#121,#121,#106,.T.);
#139=EDGE_CURVE('',#122,#122,#107,.T.);
#140=EDGE_CURVE('',#123,#123,#108,.T.);
#141=EDGE_CURVE('',#124,#124,#109,.T.);
#142=EDGE_CURVE('',#125,#125,#15,.T.);
#143=EDGE_CURVE('',#126,#126,#110,.T.);
#144=EDGE_CURVE('',#127,#127,#111,.T.);
#145=EDGE_CURVE('',#128,#128,#112,.T.);
#146=EDGE_CURVE('',#129,#129,#16,.T.);
#147=ORIENTED_EDGE('',*,*,#130,.T.);
#148=ORIENTED_EDGE('',*,*,#131,.T.);
#149=ORIENTED_EDGE('',*,*,#132,.T.);
#150=ORIENTED_EDGE('',*,*,#130,.F.);
#151=ORIENTED_EDGE('',*,*,#133,.T.);
#152=ORIENTED_EDGE('',*,*,#131,.F.);
#153=ORIENTED_EDGE('',*,*,#134,.T.);
#154=ORIENTED_EDGE('',*,*,#135,.T.);
#155=ORIENTED_EDGE('',*,*,#136,.F.);
#156=ORIENTED_EDGE('',*,*,#134,.F.);
#157=ORIENTED_EDGE('',*,*,#137,.T.);
#158=ORIENTED_EDGE('',*,*,#135,.F.);
#159=ORIENTED_EDGE('',*,*,#138,.T.);
#160=ORIENTED_EDGE('',*,*,#139,.T.);
#161=ORIENTED_EDGE('',*,*,#140,.T.);
#162=ORIENTED_EDGE('',*,*,#138,.F.);
#163=ORIENTED_EDGE('',*,*,#141,.F.);
#164=ORIENTED_EDGE('',*,*,#139,.F.);
#165=ORIENTED_EDGE('',*,*,#142,.F.);
#166=ORIENTED_EDGE('',*,*,#143,.F.);
#167=ORIENTED_EDGE('',*,*,#144,.F.);
#168=ORIENTED_EDGE('',*,*,#142,.T.);
#169=ORIENTED_EDGE('',*,*,#145,.F.);
#170=ORIENTED_EDGE('',*,*,#140,.F.);
#171=ORIENTED_EDGE('',*,*,#143,.T.);
#172=ORIENTED_EDGE('',*,*,#141,.T.);
#173=ORIENTED_EDGE('',*,*,#146,.F.);
#174=ORIENTED_EDGE('',*,*,#133,.F.);
#175=ORIENTED_EDGE('',*,*,#137,.F.);
#176=ORIENTED_EDGE('',*,*,#146,.T.);
#177=ORIENTED_EDGE('',*,*,#136,.T.);
#178=ORIENTED_EDGE('',*,*,#145,.T.);
#179=ORIENTED_EDGE('',*,*,#132,.F.);
#180=ORIENTED_EDGE('',*,*,#144,.T.);
#181=TOROIDAL_SURFACE('',#202,25.5,0.5);
#182=TOROIDAL_SURFACE('',#209,25.5,0.5);
#183=TOROIDAL_SURFACE('',#216,10.5,0.5);
#184=ADVANCED_FACE('',(#48,#30),#181,.T.);
#185=ADVANCED_FACE('',(#49,#31),#23,.F.);
#186=ADVANCED_FACE('',(#50,#32),#17,.T.);
#187=ADVANCED_FACE('',(#51,#33),#182,.T.);
#188=ADVANCED_FACE('',(#52,#34),#24,.F.);
#189=ADVANCED_FACE('',(#53,#35),#18,.F.);
#190=ADVANCED_FACE('',(#54,#36),#183,.T.);
#191=ADVANCED_FACE('',(#55,#37),#25,.F.);
#192=ADVANCED_FACE('',(#56,#38),#19,.T.);
#193=ADVANCED_FACE('',(#57,#39),#26,.F.);
#194=ADVANCED_FACE('',(#58,#40,#41),#27,.F.);
#195=ADVANCED_FACE('',(#59,#42),#20,.T.);
#196=ADVANCED_FACE('',(#60,#43),#28,.T.);
#197=ADVANCED_FACE('',(#61,#44,#45),#29,.T.);
#198=ADVANCED_FACE('',(#62,#46),#21,.F.);
#199=ADVANCED_FACE('',(#63,#47),#22,.T.);
#200=CLOSED_SHELL('',(#184,#185,#186,#187,#188,#189,#190,#191,#192,#193,
#194,#195,#196,#197,#198,#199));
#201=AXIS2_PLACEMENT_3D('placement',#297,#233,#234);
#202=AXIS2_PLACEMENT_3D('',#298,#235,#236);
#203=AXIS2_PLACEMENT_3D('',#300,#237,#238);
#204=AXIS2_PLACEMENT_3D('',#302,#239,#240);
#205=AXIS2_PLACEMENT_3D('',#303,#241,#242);
#206=AXIS2_PLACEMENT_3D('',#305,#243,#244);
#207=AXIS2_PLACEMENT_3D('',#306,#245,#246);
#208=AXIS2_PLACEMENT_3D('',#308,#247,#248);
#209=AXIS2_PLACEMENT_3D('',#309,#249,#250);
#210=AXIS2_PLACEMENT_3D('',#311,#251,#252);
#211=AXIS2_PLACEMENT_3D('',#313,#253,#254);
#212=AXIS2_PLACEMENT_3D('',#314,#255,#256);
#213=AXIS2_PLACEMENT_3D('',#316,#257,#258);
#214=AXIS2_PLACEMENT_3D('',#317,#259,#260);
#215=AXIS2_PLACEMENT_3D('',#319,#261,#262);
#216=AXIS2_PLACEMENT_3D('',#320,#263,#264);
#217=AXIS2_PLACEMENT_3D('',#322,#265,#266);
#218=AXIS2_PLACEMENT_3D('',#324,#267,#268);
#219=AXIS2_PLACEMENT_3D('',#325,#269,#270);
#220=AXIS2_PLACEMENT_3D('',#327,#271,#272);
#221=AXIS2_PLACEMENT_3D('',#328,#273,#274);
#222=AXIS2_PLACEMENT_3D('',#330,#275,#276);
#223=AXIS2_PLACEMENT_3D('',#331,#277,#278);
#224=AXIS2_PLACEMENT_3D('',#368,#279,#280);
#225=AXIS2_PLACEMENT_3D('',#369,#281,#282);
#226=AXIS2_PLACEMENT_3D('',#371,#283,#284);
#227=AXIS2_PLACEMENT_3D('',#373,#285,#286);
#228=AXIS2_PLACEMENT_3D('',#374,#287,#288);
#229=AXIS2_PLACEMENT_3D('',#375,#289,#290);
#230=AXIS2_PLACEMENT_3D('',#427,#291,#292);
#231=AXIS2_PLACEMENT_3D('',#428,#293,#294);
#232=AXIS2_PLACEMENT_3D('',#429,#295,#296);
#233=DIRECTION('axis',(0.,0.,1.));
#234=DIRECTION('refdir',(1.,0.,0.));
#235=DIRECTION('center_axis',(0.,0.,-1.));
#236=DIRECTION('ref_axis',(-1.,0.,0.));
#237=DIRECTION('center_axis',(0.,0.,-1.));
#238=DIRECTION('ref_axis',(-1.,0.,0.));
#239=DIRECTION('center_axis',(0.,0.,1.));
#240=DIRECTION('ref_axis',(-1.,0.,0.));
#241=DIRECTION('center_axis',(0.,0.,-1.));
#242=DIRECTION('ref_axis',(-1.,0.,0.));
#243=DIRECTION('center_axis',(0.,0.,-1.));
#244=DIRECTION('ref_axis',(-1.,0.,0.));
#245=DIRECTION('center_axis',(0.,0.,1.));
#246=DIRECTION('ref_axis',(1.,0.,0.));
#247=DIRECTION('center_axis',(0.,0.,1.));
#248=DIRECTION('ref_axis',(-1.,0.,0.));
#249=DIRECTION('center_axis',(0.,0.,1.));
#250=DIRECTION('ref_axis',(1.,0.,0.));
#251=DIRECTION('center_axis',(0.,0.,1.));
#252=DIRECTION('ref_axis',(-1.,0.,0.));
#253=DIRECTION('center_axis',(0.,0.,-1.));
#254=DIRECTION('ref_axis',(-1.,0.,0.));
#255=DIRECTION('center_axis',(0.,0.,-1.));
#256=DIRECTION('ref_axis',(-1.,0.,0.));
#257=DIRECTION('center_axis',(0.,0.,-1.));
#258=DIRECTION('ref_axis',(-1.,0.,0.));
#259=DIRECTION('center_axis',(0.,0.,1.));
#260=DIRECTION('ref_axis',(1.,0.,0.));
#261=DIRECTION('center_axis',(0.,0.,-1.));
#262=DIRECTION('ref_axis',(-1.,0.,0.));
#263=DIRECTION('center_axis',(0.,-1.,0.));
#264=DIRECTION('ref_axis',(0.,0.,-1.));
#265=DIRECTION('center_axis',(0.,-1.,0.));
#266=DIRECTION('ref_axis',(-1.,0.,0.));
#267=DIRECTION('center_axis',(0.,1.,0.));
#268=DIRECTION('ref_axis',(-1.,0.,0.));
#269=DIRECTION('center_axis',(0.,-1.,0.));
#270=DIRECTION('ref_axis',(-1.,0.,0.));
#271=DIRECTION('center_axis',(0.,-1.,0.));
#272=DIRECTION('ref_axis',(-1.,0.,0.));
#273=DIRECTION('center_axis',(0.,1.,0.));
#274=DIRECTION('ref_axis',(0.,0.,1.));
#275=DIRECTION('center_axis',(0.,-1.,0.));
#276=DIRECTION('ref_axis',(1.,0.,0.));
#277=DIRECTION('center_axis',(0.,-1.,0.));
#278=DIRECTION('ref_axis',(-1.,0.,0.));
#279=DIRECTION('center_axis',(0.,-1.,0.));
#280=DIRECTION('ref_axis',(-1.,0.,0.));
#281=DIRECTION('center_axis',(0.,0.,1.));
#282=DIRECTION('ref_axis',(1.,0.,0.));
#283=DIRECTION('center_axis',(0.,0.,-1.));
#284=DIRECTION('ref_axis',(1.,0.,0.));
#285=DIRECTION('center_axis',(0.,0.,1.));
#286=DIRECTION('ref_axis',(1.,0.,0.));
#287=DIRECTION('center_axis',(0.,1.,0.));
#288=DIRECTION('ref_axis',(0.,0.,1.));
#289=DIRECTION('center_axis',(0.,-1.,0.));
#290=DIRECTION('ref_axis',(1.,0.,0.));
#291=DIRECTION('center_axis',(0.,0.,1.));
#292=DIRECTION('ref_axis',(-1.,0.,0.));
#293=DIRECTION('center_axis',(0.,0.,1.));
#294=DIRECTION('ref_axis',(1.,0.,0.));
#295=DIRECTION('center_axis',(0.,0.,1.));
#296=DIRECTION('ref_axis',(1.,0.,0.));
#297=CARTESIAN_POINT('',(0.,0.,0.));
#298=CARTESIAN_POINT('Origin',(0.,0.,56.5));
#299=CARTESIAN_POINT('',(25.,-3.06161699786838E-15,56.5));
#300=CARTESIAN_POINT('Origin',(0.,0.,56.5));
#301=CARTESIAN_POINT('',(25.5,3.12284933782575E-15,57.));
#302=CARTESIAN_POINT('Origin',(0.,0.,57.));
#303=CARTESIAN_POINT('Origin',(0.,0.,57.));
#304=CARTESIAN_POINT('',(25.,3.06161699786838E-15,26.));
#305=CARTESIAN_POINT('Origin',(0.,0.,26.));
#306=CARTESIAN_POINT('Origin',(-3.11264394783286E-16,0.,57.));
#307=CARTESIAN_POINT('',(30.5,3.73517273739943E-15,57.));
#308=CARTESIAN_POINT('Origin',(0.,0.,57.));
#309=CARTESIAN_POINT('Origin',(0.,0.,-56.5));
#310=CARTESIAN_POINT('',(25.,3.06161699786838E-15,-56.5));
#311=CARTESIAN_POINT('Origin',(0.,0.,-56.5));
#312=CARTESIAN_POINT('',(25.5,-3.12284933782575E-15,-57.));
#313=CARTESIAN_POINT('Origin',(0.,0.,-57.));
#314=CARTESIAN_POINT('Origin',(0.,0.,-57.));
#315=CARTESIAN_POINT('',(25.,3.06161699786838E-15,-26.));
#316=CARTESIAN_POINT('Origin',(0.,0.,-26.));
#317=CARTESIAN_POINT('Origin',(-3.11264394783286E-16,0.,-57.));
#318=CARTESIAN_POINT('',(30.5,3.73517273739943E-15,-57.));
#319=CARTESIAN_POINT('Origin',(0.,0.,-57.));
#320=CARTESIAN_POINT('Origin',(0.,41.5,0.));
#321=CARTESIAN_POINT('',(10.,41.5,1.22464679914735E-15));
#322=CARTESIAN_POINT('Origin',(0.,41.5,0.));
#323=CARTESIAN_POINT('',(10.5,42.,-1.28587913910472E-15));
#324=CARTESIAN_POINT('Origin',(0.,42.,0.));
#325=CARTESIAN_POINT('Origin',(0.,42.,0.));
#326=CARTESIAN_POINT('',(10.,26.,-1.22464679914735E-15));
#327=CARTESIAN_POINT('Origin',(0.,26.,0.));
#328=CARTESIAN_POINT('Origin',(6.71553090674409E-16,42.,0.));
#329=CARTESIAN_POINT('',(-14.,42.,1.71450551880629E-15));
#330=CARTESIAN_POINT('Origin',(0.,42.,0.));
#331=CARTESIAN_POINT('Origin',(0.,26.,0.));
#332=CARTESIAN_POINT('',(9.25,22.4165117714599,2.77555756156289E-16));
#333=CARTESIAN_POINT('Ctrl Pts',(9.25,22.4165117714599,2.77555756156289E-16));
#334=CARTESIAN_POINT('Ctrl Pts',(9.25,22.4165117714599,-1.17494643586332));
#335=CARTESIAN_POINT('Ctrl Pts',(9.01273787019883,22.5186415254201,-2.41890779682994));
#336=CARTESIAN_POINT('Ctrl Pts',(8.065339115227,22.875072648242,-4.69370680540551));
#337=CARTESIAN_POINT('Ctrl Pts',(7.35571879990922,23.122980039626,-5.72575665204191));
#338=CARTESIAN_POINT('Ctrl Pts',(5.72642814699702,23.5793478653708,-7.35504730495411));
#339=CARTESIAN_POINT('Ctrl Pts',(4.6941200744244,23.8191309711874,-8.06517925156188));
#340=CARTESIAN_POINT('Ctrl Pts',(2.41832945063432,24.156519746166,-9.01296648366046));
#341=CARTESIAN_POINT('Ctrl Pts',(1.17397835129125,24.25,-9.25));
#342=CARTESIAN_POINT('Ctrl Pts',(-1.17397835129125,24.25,-9.25));
#343=CARTESIAN_POINT('Ctrl Pts',(-2.41832945063432,24.156519746166,-9.01296648366046));
#344=CARTESIAN_POINT('Ctrl Pts',(-4.6941200744244,23.8191309711874,-8.06517925156188));
#345=CARTESIAN_POINT('Ctrl Pts',(-5.72642814699702,23.5793478653708,-7.35504730495411));
#346=CARTESIAN_POINT('Ctrl Pts',(-7.35571879990922,23.122980039626,-5.72575665204191));
#347=CARTESIAN_POINT('Ctrl Pts',(-8.065339115227,22.875072648242,-4.69370680540551));
#348=CARTESIAN_POINT('Ctrl Pts',(-9.01273787019883,22.5186415254201,-2.41890779682994));
#349=CARTESIAN_POINT('Ctrl Pts',(-9.25,22.4165117714599,-1.17494643586332));
#350=CARTESIAN_POINT('Ctrl Pts',(-9.25,22.4165117714599,1.17494643586332));
#351=CARTESIAN_POINT('Ctrl Pts',(-9.01273787019884,22.5186415254201,2.41890779682994));
#352=CARTESIAN_POINT('Ctrl Pts',(-8.065339115227,22.875072648242,4.6937068054055));
#353=CARTESIAN_POINT('Ctrl Pts',(-7.35571879990922,23.122980039626,5.72575665204191));
#354=CARTESIAN_POINT('Ctrl Pts',(-5.72642814699702,23.5793478653708,7.35504730495411));
#355=CARTESIAN_POINT('Ctrl Pts',(-4.6941200744244,23.8191309711874,8.06517925156188));
#356=CARTESIAN_POINT('Ctrl Pts',(-2.41832945063432,24.156519746166,9.01296648366046));
#357=CARTESIAN_POINT('Ctrl Pts',(-1.17397835129125,24.25,9.25));
#358=CARTESIAN_POINT('Ctrl Pts',(1.17397835129125,24.25,9.25));
#359=CARTESIAN_POINT('Ctrl Pts',(2.41832945063432,24.156519746166,9.01296648366046));
#360=CARTESIAN_POINT('Ctrl Pts',(4.6941200744244,23.8191309711874,8.06517925156188));
#361=CARTESIAN_POINT('Ctrl Pts',(5.72642814699702,23.5793478653708,7.35504730495411));
#362=CARTESIAN_POINT('Ctrl Pts',(7.35571879990922,23.122980039626,5.72575665204191));
#363=CARTESIAN_POINT('Ctrl Pts',(8.065339115227,22.875072648242,4.6937068054055));
#364=CARTESIAN_POINT('Ctrl Pts',(9.01273787019883,22.5186415254201,2.41890779682994));
#365=CARTESIAN_POINT('Ctrl Pts',(9.25,22.4165117714599,1.17494643586332));
#366=CARTESIAN_POINT('Ctrl Pts',(9.25,22.4165117714599,0.));
#367=CARTESIAN_POINT('',(9.25,26.,-1.1327982892113E-15));
#368=CARTESIAN_POINT('Origin',(0.,26.,0.));
#369=CARTESIAN_POINT('Origin',(0.,0.,-26.));
#370=CARTESIAN_POINT('',(-24.25,2.96976848793233E-15,26.));
#371=CARTESIAN_POINT('Origin',(0.,0.,26.));
#372=CARTESIAN_POINT('',(-24.25,2.96976848793233E-15,-26.));
#373=CARTESIAN_POINT('Origin',(0.,0.,-26.));
#374=CARTESIAN_POINT('Origin',(-4.72128241470665E-16,26.,0.));
#375=CARTESIAN_POINT('Origin',(0.,42.,0.));
#376=CARTESIAN_POINT('',(14.,27.0970478096785,-2.77555756156289E-16));
#377=CARTESIAN_POINT('Ctrl Pts',(14.,27.0970478096785,-2.77555756156289E-16));
#378=CARTESIAN_POINT('Ctrl Pts',(14.,27.0970478096785,0.894560904181397));
#379=CARTESIAN_POINT('Ctrl Pts',(13.9128991000092,27.1426256108999,1.81439250135131));
#380=CARTESIAN_POINT('Ctrl Pts',(13.5518008058637,27.3247064247373,3.634484362769));
#381=CARTESIAN_POINT('Ctrl Pts',(13.2779382714943,27.4609437691809,4.53479794729972));
#382=CARTESIAN_POINT('Ctrl Pts',(12.2009249414695,27.9645428269107,7.11404827768379));
#383=CARTESIAN_POINT('Ctrl Pts',(11.1289205268447,28.4268640104816,8.6700693463786));
#384=CARTESIAN_POINT('Ctrl Pts',(8.67234723923077,29.2698412737543,11.1266426339926));
#385=CARTESIAN_POINT('Ctrl Pts',(7.11551516323492,29.7098900052281,12.2003442279697));
#386=CARTESIAN_POINT('Ctrl Pts',(4.53374517917115,30.1738245016945,13.2783619655619));
#387=CARTESIAN_POINT('Ctrl Pts',(3.63258731195346,30.2966901048492,13.5523184716829));
#388=CARTESIAN_POINT('Ctrl Pts',(1.8121825186384,30.4598279116721,13.9131959326001));
#389=CARTESIAN_POINT('Ctrl Pts',(0.89290345219272,30.5,14.));
#390=CARTESIAN_POINT('Ctrl Pts',(-0.892903452192717,30.5,14.));
#391=CARTESIAN_POINT('Ctrl Pts',(-1.81218251863839,30.4598279116721,13.9131959326001));
#392=CARTESIAN_POINT('Ctrl Pts',(-3.63258731195345,30.2966901048492,13.5523184716829));
#393=CARTESIAN_POINT('Ctrl Pts',(-4.53374517917115,30.1738245016945,13.2783619655619));
#394=CARTESIAN_POINT('Ctrl Pts',(-7.11551516323491,29.7098900052281,12.2003442279697));
#395=CARTESIAN_POINT('Ctrl Pts',(-8.67234723923076,29.2698412737543,11.1266426339926));
#396=CARTESIAN_POINT('Ctrl Pts',(-11.1289205268447,28.4268640104816,8.6700693463786));
#397=CARTESIAN_POINT('Ctrl Pts',(-12.2009249414695,27.9645428269107,7.11404827768379));
#398=CARTESIAN_POINT('Ctrl Pts',(-13.2779382714943,27.4609437691809,4.53479794729973));
#399=CARTESIAN_POINT('Ctrl Pts',(-13.5518008058637,27.3247064247373,3.63448436276901));
#400=CARTESIAN_POINT('Ctrl Pts',(-13.9128991000092,27.1426256108999,1.81439250135131));
#401=CARTESIAN_POINT('Ctrl Pts',(-14.,27.0970478096785,0.894560904181399));
#402=CARTESIAN_POINT('Ctrl Pts',(-14.,27.0970478096785,-0.894560904181398));
#403=CARTESIAN_POINT('Ctrl Pts',(-13.9128991000092,27.1426256108999,-1.81439250135131));
#404=CARTESIAN_POINT('Ctrl Pts',(-13.5518008058637,27.3247064247373,-3.634484362769));
#405=CARTESIAN_POINT('Ctrl Pts',(-13.2779382714943,27.4609437691809,-4.53479794729972));
#406=CARTESIAN_POINT('Ctrl Pts',(-12.2009249414695,27.9645428269107,-7.11404827768379));
#407=CARTESIAN_POINT('Ctrl Pts',(-11.1289205268447,28.4268640104816,-8.6700693463786));
#408=CARTESIAN_POINT('Ctrl Pts',(-8.67234723923077,29.2698412737543,-11.1266426339926));
#409=CARTESIAN_POINT('Ctrl Pts',(-7.11551516323492,29.7098900052281,-12.2003442279697));
#410=CARTESIAN_POINT('Ctrl Pts',(-4.53374517917115,30.1738245016945,-13.2783619655619));
#411=CARTESIAN_POINT('Ctrl Pts',(-3.63258731195346,30.2966901048492,-13.5523184716829));
#412=CARTESIAN_POINT('Ctrl Pts',(-1.8121825186384,30.4598279116721,-13.9131959326001));
#413=CARTESIAN_POINT('Ctrl Pts',(-0.892903452192722,30.5,-14.));
#414=CARTESIAN_POINT('Ctrl Pts',(0.892903452192716,30.5,-14.));
#415=CARTESIAN_POINT('Ctrl Pts',(1.81218251863839,30.4598279116721,-13.9131959326001));
#416=CARTESIAN_POINT('Ctrl Pts',(3.63258731195345,30.2966901048492,-13.5523184716829));
#417=CARTESIAN_POINT('Ctrl Pts',(4.53374517917115,30.1738245016945,-13.2783619655619));
#418=CARTESIAN_POINT('Ctrl Pts',(7.11551516323491,29.7098900052281,-12.2003442279697));
#419=CARTESIAN_POINT('Ctrl Pts',(8.67234723923076,29.2698412737543,-11.1266426339926));
#420=CARTESIAN_POINT('Ctrl Pts',(11.1289205268447,28.4268640104816,-8.6700693463786));
#421=CARTESIAN_POINT('Ctrl Pts',(12.2009249414695,27.9645428269107,-7.1140482776838));
#422=CARTESIAN_POINT('Ctrl Pts',(13.2779382714943,27.4609437691809,-4.53479794729973));
#423=CARTESIAN_POINT('Ctrl Pts',(13.5518008058637,27.3247064247373,-3.63448436276901));
#424=CARTESIAN_POINT('Ctrl Pts',(13.9128991000092,27.1426256108999,-1.81439250135132));
#425=CARTESIAN_POINT('Ctrl Pts',(14.,27.0970478096785,-0.894560904181401));
#426=CARTESIAN_POINT('Ctrl Pts',(14.,27.0970478096785,-2.77555756156289E-16));
#427=CARTESIAN_POINT('Origin',(0.,0.,0.));
#428=CARTESIAN_POINT('Origin',(-1.43937264275587E-15,0.,-26.));
#429=CARTESIAN_POINT('Origin',(-1.43937264275587E-15,0.,26.));
#430=UNCERTAINTY_MEASURE_WITH_UNIT(LENGTH_MEASURE(0.01),#434,
'DISTANCE_ACCURACY_VALUE',
'Maximum model space distance between geometric entities at asserted c
onnectivities');
#431=UNCERTAINTY_MEASURE_WITH_UNIT(LENGTH_MEASURE(1.E-6),#434,
'DISTANCE_ACCURACY_VALUE',
'Maximum model space distance between geometric entities at asserted c
onnectivities');
#432=(
GEOMETRIC_REPRESENTATION_CONTEXT(3)
GLOBAL_UNCERTAINTY_ASSIGNED_CONTEXT((#430))
GLOBAL_UNIT_ASSIGNED_CONTEXT((#434,#437,#435))
REPRESENTATION_CONTEXT('','3D')
);
#433=(
GEOMETRIC_REPRESENTATION_CONTEXT(3)
GLOBAL_UNCERTAINTY_ASSIGNED_CONTEXT((#431))
GLOBAL_UNIT_ASSIGNED_CONTEXT((#434,#437,#435))
REPRESENTATION_CONTEXT('','3D')
);
#434=(
LENGTH_UNIT()
NAMED_UNIT(*)
SI_UNIT(.MILLI.,.METRE.)
);
#435=(
NAMED_UNIT(*)
SI_UNIT($,.STERADIAN.)
SOLID_ANGLE_UNIT()
);
#436=DIMENSIONAL_EXPONENTS(0.,0.,0.,0.,0.,0.,0.);
#437=(
CONVERSION_BASED_UNIT('degree',#439)
NAMED_UNIT(#436)
PLANE_ANGLE_UNIT()
);
#438=(
NAMED_UNIT(*)
PLANE_ANGLE_UNIT()
SI_UNIT($,.RADIAN.)
);
#439=PLANE_ANGLE_MEASURE_WITH_UNIT(PLANE_ANGLE_MEASURE(0.01745329252),#438);
#440=SHAPE_DEFINITION_REPRESENTATION(#441,#442);
#441=PRODUCT_DEFINITION_SHAPE('',$,#444);
#442=SHAPE_REPRESENTATION('',(#201),#432);
#443=PRODUCT_DEFINITION_CONTEXT('part definition',#448,'design');
#444=PRODUCT_DEFINITION('TR40050B','TR40050B',#445,#443);
#445=PRODUCT_DEFINITION_FORMATION('',$,#450);
#446=PRODUCT_RELATED_PRODUCT_CATEGORY('TR40050B','TR40050B',(#450));
#447=APPLICATION_PROTOCOL_DEFINITION('international standard',
'automotive_design',2009,#448);
#448=APPLICATION_CONTEXT(
'Core Data for Automotive Mechanical Design Process');
#449=PRODUCT_CONTEXT('part definition',#448,'mechanical');
#450=PRODUCT('TR40050B','TR40050B',$,(#449));
#451=PRESENTATION_STYLE_ASSIGNMENT((#452));
#452=SURFACE_STYLE_USAGE(.BOTH.,#453);
#453=SURFACE_SIDE_STYLE('',(#454));
#454=SURFACE_STYLE_FILL_AREA(#455);
#455=FILL_AREA_STYLE('',(#456));
#456=FILL_AREA_STYLE_COLOUR('',#457);
#457=COLOUR_RGB('',0.8,0.8,0.8);
ENDSEC;
END-ISO-10303-21;
