ISO-10303-21;
HEADER;
/* Generated by software containing ST-Developer
 * from STEP Tools, Inc. (www.steptools.com) 
 */

FILE_DESCRIPTION(
/* description */ (''),
/* implementation_level */ '2;1');

FILE_NAME(
/* name */ 'C:\\Users\\Gabriele\\Desktop\\catalogo\\EL50\\EL502250.stp',

/* time_stamp */ '2016-10-17T17:18:08+02:00',
/* author */ ('Gabriele'),
/* organization */ (''),
/* preprocessor_version */ 'ST-DEVELOPER v16.5',
/* originating_system */ 'Autodesk Inventor 2017',
/* authorisation */ '');

FILE_SCHEMA (('AUTOMOTIVE_DESIGN { 1 0 10303 214 3 1 1 }'));
ENDSEC;

DATA;
#10=MECHANICAL_DESIGN_GEOMETRIC_PRESENTATION_REPRESENTATION('',(#13),#439);
#11=SHAPE_REPRESENTATION_RELATIONSHIP('SRR','None',#448,#12);
#12=ADVANCED_BREP_SHAPE_REPRESENTATION('',(#14),#438);
#13=STYLED_ITEM('',(#457),#14);
#14=MANIFOLD_SOLID_BREP('Solido1',#211);
#15=PLANE('',#224);
#16=PLANE('',#234);
#17=PLANE('',#246);
#18=PLANE('',#247);
#19=TOROIDAL_SURFACE('',#221,113.,0.5);
#20=TOROIDAL_SURFACE('',#228,128.5,0.5);
#21=TOROIDAL_SURFACE('',#231,113.,0.5);
#22=TOROIDAL_SURFACE('',#238,128.5,0.5);
#23=TOROIDAL_SURFACE('',#242,115.,108.5);
#24=FACE_BOUND('',#82,.T.);
#25=FACE_BOUND('',#84,.T.);
#26=FACE_BOUND('',#86,.T.);
#27=FACE_BOUND('',#88,.T.);
#28=FACE_BOUND('',#90,.T.);
#29=FACE_BOUND('',#92,.T.);
#30=FACE_BOUND('',#94,.T.);
#31=FACE_BOUND('',#96,.T.);
#32=FACE_BOUND('',#98,.T.);
#33=FACE_BOUND('',#100,.T.);
#34=FACE_BOUND('',#102,.T.);
#35=FACE_BOUND('',#104,.T.);
#36=FACE_BOUND('',#106,.T.);
#37=FACE_BOUND('',#108,.T.);
#38=FACE_BOUND('',#110,.T.);
#39=CYLINDRICAL_SURFACE('',#219,129.);
#40=CYLINDRICAL_SURFACE('',#226,112.5);
#41=CYLINDRICAL_SURFACE('',#230,129.);
#42=CYLINDRICAL_SURFACE('',#236,112.5);
#43=CYLINDRICAL_SURFACE('',#239,108.5);
#44=CYLINDRICAL_SURFACE('',#244,108.5);
#45=CIRCLE('',#217,129.);
#46=CIRCLE('',#218,129.);
#47=CIRCLE('',#220,129.);
#48=CIRCLE('',#222,112.5);
#49=CIRCLE('',#223,113.);
#50=CIRCLE('',#225,128.5);
#51=CIRCLE('',#227,112.5);
#52=CIRCLE('',#229,129.);
#53=CIRCLE('',#232,112.5);
#54=CIRCLE('',#233,113.);
#55=CIRCLE('',#235,128.5);
#56=CIRCLE('',#237,112.5);
#57=CIRCLE('',#240,108.5);
#58=CIRCLE('',#241,108.5);
#59=CIRCLE('',#243,108.5);
#60=CIRCLE('',#245,108.5);
#61=(
BOUNDED_SURFACE()
B_SPLINE_SURFACE(2,2,((#364,#365,#366),(#367,#368,#369),(#370,#371,#372),
(#373,#374,#375),(#376,#377,#378),(#379,#380,#381),(#382,#383,#384),(#385,
#386,#387),(#388,#389,#390)),.UNSPECIFIED.,.F.,.F.,.F.)
B_SPLINE_SURFACE_WITH_KNOTS((3,2,2,2,3),(3,3),(-2.66422494720972,-1.33211247360486,
-4.44089209850063E-16,1.33211247360486,2.66422494720972),(-4.00066453395357E-14,
1.57079632679723),.UNSPECIFIED.)
GEOMETRIC_REPRESENTATION_ITEM()
RATIONAL_B_SPLINE_SURFACE(((1.,0.707106781185709,1.),(0.786264585727976,
0.555973020374424,0.786264585727976),(1.,0.707106781185709,1.),(0.786264585727976,
0.555973020374424,0.786264585727976),(1.,0.707106781185709,1.),(0.786264585727976,
0.555973020374424,0.786264585727976),(1.,0.707106781185709,1.),(0.786264585727975,
0.555973020374424,0.786264585727975),(1.,0.707106781185709,1.)))
REPRESENTATION_ITEM('')
SURFACE()
);
#62=FACE_OUTER_BOUND('',#79,.T.);
#63=FACE_OUTER_BOUND('',#80,.T.);
#64=FACE_OUTER_BOUND('',#81,.T.);
#65=FACE_OUTER_BOUND('',#83,.T.);
#66=FACE_OUTER_BOUND('',#85,.T.);
#67=FACE_OUTER_BOUND('',#87,.T.);
#68=FACE_OUTER_BOUND('',#89,.T.);
#69=FACE_OUTER_BOUND('',#91,.T.);
#70=FACE_OUTER_BOUND('',#93,.T.);
#71=FACE_OUTER_BOUND('',#95,.T.);
#72=FACE_OUTER_BOUND('',#97,.T.);
#73=FACE_OUTER_BOUND('',#99,.T.);
#74=FACE_OUTER_BOUND('',#101,.T.);
#75=FACE_OUTER_BOUND('',#103,.T.);
#76=FACE_OUTER_BOUND('',#105,.T.);
#77=FACE_OUTER_BOUND('',#107,.T.);
#78=FACE_OUTER_BOUND('',#109,.T.);
#79=EDGE_LOOP('',(#153,#154,#155,#156));
#80=EDGE_LOOP('',(#157,#158,#159,#160));
#81=EDGE_LOOP('',(#161));
#82=EDGE_LOOP('',(#162,#163));
#83=EDGE_LOOP('',(#164));
#84=EDGE_LOOP('',(#165));
#85=EDGE_LOOP('',(#166));
#86=EDGE_LOOP('',(#167));
#87=EDGE_LOOP('',(#168));
#88=EDGE_LOOP('',(#169));
#89=EDGE_LOOP('',(#170));
#90=EDGE_LOOP('',(#171));
#91=EDGE_LOOP('',(#172,#173));
#92=EDGE_LOOP('',(#174));
#93=EDGE_LOOP('',(#175));
#94=EDGE_LOOP('',(#176));
#95=EDGE_LOOP('',(#177));
#96=EDGE_LOOP('',(#178));
#97=EDGE_LOOP('',(#179));
#98=EDGE_LOOP('',(#180));
#99=EDGE_LOOP('',(#181));
#100=EDGE_LOOP('',(#182));
#101=EDGE_LOOP('',(#183));
#102=EDGE_LOOP('',(#184));
#103=EDGE_LOOP('',(#185));
#104=EDGE_LOOP('',(#186));
#105=EDGE_LOOP('',(#187));
#106=EDGE_LOOP('',(#188));
#107=EDGE_LOOP('',(#189));
#108=EDGE_LOOP('',(#190));
#109=EDGE_LOOP('',(#191));
#110=EDGE_LOOP('',(#192));
#111=ELLIPSE('',#213,0.529628732501544,0.500041564842672);
#112=ELLIPSE('',#214,182.787444864247,129.);
#113=ELLIPSE('',#215,0.529628732499957,0.500041564842035);
#114=ELLIPSE('',#216,182.787444864247,129.);
#115=VERTEX_POINT('',#356);
#116=VERTEX_POINT('',#357);
#117=VERTEX_POINT('',#359);
#118=VERTEX_POINT('',#361);
#119=VERTEX_POINT('',#394);
#120=VERTEX_POINT('',#397);
#121=VERTEX_POINT('',#399);
#122=VERTEX_POINT('',#402);
#123=VERTEX_POINT('',#405);
#124=VERTEX_POINT('',#408);
#125=VERTEX_POINT('',#412);
#126=VERTEX_POINT('',#414);
#127=VERTEX_POINT('',#417);
#128=VERTEX_POINT('',#420);
#129=VERTEX_POINT('',#424);
#130=VERTEX_POINT('',#426);
#131=VERTEX_POINT('',#429);
#132=VERTEX_POINT('',#432);
#133=EDGE_CURVE('',#115,#116,#111,.T.);
#134=EDGE_CURVE('',#115,#117,#112,.T.);
#135=EDGE_CURVE('',#118,#117,#113,.T.);
#136=EDGE_CURVE('',#118,#116,#114,.T.);
#137=EDGE_CURVE('',#117,#115,#45,.T.);
#138=EDGE_CURVE('',#118,#116,#46,.T.);
#139=EDGE_CURVE('',#119,#119,#47,.T.);
#140=EDGE_CURVE('',#120,#120,#48,.T.);
#141=EDGE_CURVE('',#121,#121,#49,.T.);
#142=EDGE_CURVE('',#122,#122,#50,.T.);
#143=EDGE_CURVE('',#123,#123,#51,.T.);
#144=EDGE_CURVE('',#124,#124,#52,.T.);
#145=EDGE_CURVE('',#125,#125,#53,.T.);
#146=EDGE_CURVE('',#126,#126,#54,.T.);
#147=EDGE_CURVE('',#127,#127,#55,.T.);
#148=EDGE_CURVE('',#128,#128,#56,.T.);
#149=EDGE_CURVE('',#129,#129,#57,.T.);
#150=EDGE_CURVE('',#130,#130,#58,.T.);
#151=EDGE_CURVE('',#131,#131,#59,.T.);
#152=EDGE_CURVE('',#132,#132,#60,.T.);
#153=ORIENTED_EDGE('',*,*,#133,.F.);
#154=ORIENTED_EDGE('',*,*,#134,.T.);
#155=ORIENTED_EDGE('',*,*,#135,.F.);
#156=ORIENTED_EDGE('',*,*,#136,.T.);
#157=ORIENTED_EDGE('',*,*,#135,.T.);
#158=ORIENTED_EDGE('',*,*,#137,.T.);
#159=ORIENTED_EDGE('',*,*,#133,.T.);
#160=ORIENTED_EDGE('',*,*,#138,.F.);
#161=ORIENTED_EDGE('',*,*,#139,.F.);
#162=ORIENTED_EDGE('',*,*,#134,.F.);
#163=ORIENTED_EDGE('',*,*,#137,.F.);
#164=ORIENTED_EDGE('',*,*,#140,.T.);
#165=ORIENTED_EDGE('',*,*,#141,.T.);
#166=ORIENTED_EDGE('',*,*,#142,.F.);
#167=ORIENTED_EDGE('',*,*,#141,.F.);
#168=ORIENTED_EDGE('',*,*,#143,.F.);
#169=ORIENTED_EDGE('',*,*,#140,.F.);
#170=ORIENTED_EDGE('',*,*,#144,.T.);
#171=ORIENTED_EDGE('',*,*,#142,.T.);
#172=ORIENTED_EDGE('',*,*,#136,.F.);
#173=ORIENTED_EDGE('',*,*,#138,.T.);
#174=ORIENTED_EDGE('',*,*,#144,.F.);
#175=ORIENTED_EDGE('',*,*,#145,.T.);
#176=ORIENTED_EDGE('',*,*,#146,.T.);
#177=ORIENTED_EDGE('',*,*,#147,.F.);
#178=ORIENTED_EDGE('',*,*,#146,.F.);
#179=ORIENTED_EDGE('',*,*,#148,.T.);
#180=ORIENTED_EDGE('',*,*,#145,.F.);
#181=ORIENTED_EDGE('',*,*,#147,.T.);
#182=ORIENTED_EDGE('',*,*,#139,.T.);
#183=ORIENTED_EDGE('',*,*,#149,.F.);
#184=ORIENTED_EDGE('',*,*,#150,.F.);
#185=ORIENTED_EDGE('',*,*,#150,.T.);
#186=ORIENTED_EDGE('',*,*,#151,.F.);
#187=ORIENTED_EDGE('',*,*,#152,.F.);
#188=ORIENTED_EDGE('',*,*,#151,.T.);
#189=ORIENTED_EDGE('',*,*,#143,.T.);
#190=ORIENTED_EDGE('',*,*,#149,.T.);
#191=ORIENTED_EDGE('',*,*,#148,.F.);
#192=ORIENTED_EDGE('',*,*,#152,.T.);
#193=B_SPLINE_SURFACE_WITH_KNOTS('',3,3,((#321,#322,#323,#324,#325,#326,
#327),(#328,#329,#330,#331,#332,#333,#334),(#335,#336,#337,#338,#339,#340,
#341),(#342,#343,#344,#345,#346,#347,#348),(#349,#350,#351,#352,#353,#354,
#355)),.UNSPECIFIED.,.F.,.F.,.F.,(4,1,4),(4,1,1,1,4),(0.,0.5,1.),(-0.478032413100793,
-0.204871034184542,0.0682903447317085,0.341451723647959,0.478032413106085),
 .UNSPECIFIED.);
#194=ADVANCED_FACE('',(#62),#193,.T.);
#195=ADVANCED_FACE('',(#63),#61,.F.);
#196=ADVANCED_FACE('',(#64,#24),#39,.T.);
#197=ADVANCED_FACE('',(#65,#25),#19,.T.);
#198=ADVANCED_FACE('',(#66,#26),#15,.T.);
#199=ADVANCED_FACE('',(#67,#27),#40,.F.);
#200=ADVANCED_FACE('',(#68,#28),#20,.T.);
#201=ADVANCED_FACE('',(#69,#29),#41,.T.);
#202=ADVANCED_FACE('',(#70,#30),#21,.T.);
#203=ADVANCED_FACE('',(#71,#31),#16,.F.);
#204=ADVANCED_FACE('',(#72,#32),#42,.F.);
#205=ADVANCED_FACE('',(#73,#33),#22,.T.);
#206=ADVANCED_FACE('',(#74,#34),#43,.F.);
#207=ADVANCED_FACE('',(#75,#35),#23,.F.);
#208=ADVANCED_FACE('',(#76,#36),#44,.F.);
#209=ADVANCED_FACE('',(#77,#37),#17,.T.);
#210=ADVANCED_FACE('',(#78,#38),#18,.F.);
#211=CLOSED_SHELL('',(#194,#195,#196,#197,#198,#199,#200,#201,#202,#203,
#204,#205,#206,#207,#208,#209,#210));
#212=AXIS2_PLACEMENT_3D('placement',#320,#248,#249);
#213=AXIS2_PLACEMENT_3D('',#358,#250,#251);
#214=AXIS2_PLACEMENT_3D('',#360,#252,#253);
#215=AXIS2_PLACEMENT_3D('',#362,#254,#255);
#216=AXIS2_PLACEMENT_3D('',#363,#256,#257);
#217=AXIS2_PLACEMENT_3D('',#391,#258,#259);
#218=AXIS2_PLACEMENT_3D('',#392,#260,#261);
#219=AXIS2_PLACEMENT_3D('',#393,#262,#263);
#220=AXIS2_PLACEMENT_3D('',#395,#264,#265);
#221=AXIS2_PLACEMENT_3D('',#396,#266,#267);
#222=AXIS2_PLACEMENT_3D('',#398,#268,#269);
#223=AXIS2_PLACEMENT_3D('',#400,#270,#271);
#224=AXIS2_PLACEMENT_3D('',#401,#272,#273);
#225=AXIS2_PLACEMENT_3D('',#403,#274,#275);
#226=AXIS2_PLACEMENT_3D('',#404,#276,#277);
#227=AXIS2_PLACEMENT_3D('',#406,#278,#279);
#228=AXIS2_PLACEMENT_3D('',#407,#280,#281);
#229=AXIS2_PLACEMENT_3D('',#409,#282,#283);
#230=AXIS2_PLACEMENT_3D('',#410,#284,#285);
#231=AXIS2_PLACEMENT_3D('',#411,#286,#287);
#232=AXIS2_PLACEMENT_3D('',#413,#288,#289);
#233=AXIS2_PLACEMENT_3D('',#415,#290,#291);
#234=AXIS2_PLACEMENT_3D('',#416,#292,#293);
#235=AXIS2_PLACEMENT_3D('',#418,#294,#295);
#236=AXIS2_PLACEMENT_3D('',#419,#296,#297);
#237=AXIS2_PLACEMENT_3D('',#421,#298,#299);
#238=AXIS2_PLACEMENT_3D('',#422,#300,#301);
#239=AXIS2_PLACEMENT_3D('',#423,#302,#303);
#240=AXIS2_PLACEMENT_3D('',#425,#304,#305);
#241=AXIS2_PLACEMENT_3D('',#427,#306,#307);
#242=AXIS2_PLACEMENT_3D('',#428,#308,#309);
#243=AXIS2_PLACEMENT_3D('',#430,#310,#311);
#244=AXIS2_PLACEMENT_3D('',#431,#312,#313);
#245=AXIS2_PLACEMENT_3D('',#433,#314,#315);
#246=AXIS2_PLACEMENT_3D('',#434,#316,#317);
#247=AXIS2_PLACEMENT_3D('',#435,#318,#319);
#248=DIRECTION('axis',(0.,0.,1.));
#249=DIRECTION('refdir',(1.,0.,0.));
#250=DIRECTION('center_axis',(0.206703593909786,-0.206703593909991,-0.956319637218368));
#251=DIRECTION('ref_axis',(-0.67622008723065,0.676220113687284,-0.292323025898625));
#252=DIRECTION('center_axis',(0.708473167269107,0.705737749634863,0.));
#253=DIRECTION('ref_axis',(0.705737749634863,-0.708473167269107,0.));
#254=DIRECTION('center_axis',(0.206703593909754,-0.206703593909763,0.956319637218425));
#255=DIRECTION('ref_axis',(0.676220113675424,-0.67622008724259,-0.292323025898441));
#256=DIRECTION('center_axis',(-0.705737749634863,-0.708473167269107,0.));
#257=DIRECTION('ref_axis',(0.708473167269107,-0.705737749634863,0.));
#258=DIRECTION('center_axis',(0.,1.,0.));
#259=DIRECTION('ref_axis',(-1.,0.,0.));
#260=DIRECTION('center_axis',(1.,6.12323399573677E-17,0.));
#261=DIRECTION('ref_axis',(-6.12323399573677E-17,1.,0.));
#262=DIRECTION('center_axis',(0.,1.,0.));
#263=DIRECTION('ref_axis',(-1.,0.,0.));
#264=DIRECTION('center_axis',(0.,-1.,0.));
#265=DIRECTION('ref_axis',(-1.,0.,0.));
#266=DIRECTION('center_axis',(-1.,-6.12323399573677E-17,0.));
#267=DIRECTION('ref_axis',(0.,0.,1.));
#268=DIRECTION('center_axis',(-1.,-6.12323399573677E-17,0.));
#269=DIRECTION('ref_axis',(-6.10622663543836E-17,1.,0.));
#270=DIRECTION('center_axis',(1.,6.12323399573677E-17,0.));
#271=DIRECTION('ref_axis',(-6.12323399573677E-17,1.,0.));
#272=DIRECTION('center_axis',(1.,6.12323399573677E-17,0.));
#273=DIRECTION('ref_axis',(0.,0.,1.));
#274=DIRECTION('center_axis',(-1.,-6.12323399573677E-17,0.));
#275=DIRECTION('ref_axis',(-6.12323399573677E-17,1.,0.));
#276=DIRECTION('center_axis',(1.,2.22044604925031E-16,0.));
#277=DIRECTION('ref_axis',(-2.22044604925031E-16,1.,0.));
#278=DIRECTION('center_axis',(1.,2.22044604925031E-16,0.));
#279=DIRECTION('ref_axis',(-2.22044604925031E-16,1.,0.));
#280=DIRECTION('center_axis',(1.,6.12323399573677E-17,0.));
#281=DIRECTION('ref_axis',(0.,0.,-1.));
#282=DIRECTION('center_axis',(1.,6.12323399573677E-17,0.));
#283=DIRECTION('ref_axis',(-6.13204577554592E-17,1.,0.));
#284=DIRECTION('center_axis',(1.,0.,0.));
#285=DIRECTION('ref_axis',(0.,1.,0.));
#286=DIRECTION('center_axis',(0.,1.,0.));
#287=DIRECTION('ref_axis',(0.,0.,1.));
#288=DIRECTION('center_axis',(0.,1.,0.));
#289=DIRECTION('ref_axis',(-1.,0.,0.));
#290=DIRECTION('center_axis',(0.,-1.,0.));
#291=DIRECTION('ref_axis',(-1.,0.,0.));
#292=DIRECTION('center_axis',(0.,1.,0.));
#293=DIRECTION('ref_axis',(0.,0.,1.));
#294=DIRECTION('center_axis',(0.,1.,0.));
#295=DIRECTION('ref_axis',(-1.,0.,0.));
#296=DIRECTION('center_axis',(0.,1.,0.));
#297=DIRECTION('ref_axis',(-1.,0.,0.));
#298=DIRECTION('center_axis',(0.,1.,0.));
#299=DIRECTION('ref_axis',(-1.,0.,0.));
#300=DIRECTION('center_axis',(0.,1.,0.));
#301=DIRECTION('ref_axis',(0.,0.,1.));
#302=DIRECTION('center_axis',(1.,0.,0.));
#303=DIRECTION('ref_axis',(0.,1.,0.));
#304=DIRECTION('center_axis',(-1.,-2.22044604925031E-16,0.));
#305=DIRECTION('ref_axis',(0.,1.,0.));
#306=DIRECTION('center_axis',(1.,6.12323399573677E-17,0.));
#307=DIRECTION('ref_axis',(-6.12323399573677E-17,1.,0.));
#308=DIRECTION('center_axis',(0.,0.,-1.));
#309=DIRECTION('ref_axis',(-1.,0.,0.));
#310=DIRECTION('center_axis',(0.,1.,0.));
#311=DIRECTION('ref_axis',(-1.,0.,0.));
#312=DIRECTION('center_axis',(0.,1.,0.));
#313=DIRECTION('ref_axis',(-1.,0.,0.));
#314=DIRECTION('center_axis',(0.,1.,0.));
#315=DIRECTION('ref_axis',(-1.,0.,0.));
#316=DIRECTION('center_axis',(1.,2.22044604925031E-16,0.));
#317=DIRECTION('ref_axis',(0.,0.,1.));
#318=DIRECTION('center_axis',(0.,1.,0.));
#319=DIRECTION('ref_axis',(0.,0.,1.));
#320=CARTESIAN_POINT('',(0.,0.,0.));
#321=CARTESIAN_POINT('Ctrl Pts',(114.539331670382,119.016717431671,-59.3442625744251));
#322=CARTESIAN_POINT('Ctrl Pts',(119.942851868914,113.5922533564,-48.9150219813494));
#323=CARTESIAN_POINT('Ctrl Pts',(127.882347698258,105.621984287389,-26.5723030578054));
#324=CARTESIAN_POINT('Ctrl Pts',(130.311340946353,103.183576336812,8.91329564814179));
#325=CARTESIAN_POINT('Ctrl Pts',(124.280102021908,109.238192156304,37.9327165028383));
#326=CARTESIAN_POINT('Ctrl Pts',(117.241091769362,116.304485394323,54.1296422785076));
#327=CARTESIAN_POINT('Ctrl Pts',(114.539331670068,119.016717431986,59.3442625750312));
#328=CARTESIAN_POINT('Ctrl Pts',(114.561082141868,119.119493173717,-59.3022823667437));
#329=CARTESIAN_POINT('Ctrl Pts',(119.958702115906,113.70397880616,-48.8747748584612));
#330=CARTESIAN_POINT('Ctrl Pts',(127.884907287615,105.750018787353,-26.54381088684));
#331=CARTESIAN_POINT('Ctrl Pts',(130.308080369766,103.317756835949,8.90302792109004));
#332=CARTESIAN_POINT('Ctrl Pts',(124.289648434779,109.358181057515,37.8968358969995));
#333=CARTESIAN_POINT('Ctrl Pts',(117.259892128601,116.411735990225,54.0885286132227));
#334=CARTESIAN_POINT('Ctrl Pts',(114.561082141554,119.119493174031,59.3022823673497));
#335=CARTESIAN_POINT('Ctrl Pts',(114.675474845553,119.324525154447,-59.2553210218664));
#336=CARTESIAN_POINT('Ctrl Pts',(120.07340373688,113.92659626312,-48.8292245435776));
#337=CARTESIAN_POINT('Ctrl Pts',(127.995230259042,106.004769740958,-26.5109536717047));
#338=CARTESIAN_POINT('Ctrl Pts',(130.415617967349,103.584382032651,8.8910956474901));
#339=CARTESIAN_POINT('Ctrl Pts',(124.402841077842,109.597158922158,37.8558512229156));
#340=CARTESIAN_POINT('Ctrl Pts',(117.37443929093,116.62556070907,54.042272783342));
#341=CARTESIAN_POINT('Ctrl Pts',(114.675474845239,119.324525154761,59.2553210224723));
#342=CARTESIAN_POINT('Ctrl Pts',(114.880506826283,119.438917858132,-59.3022823667437));
#343=CARTESIAN_POINT('Ctrl Pts',(120.29602119384,114.041297884094,-48.8747748584612));
#344=CARTESIAN_POINT('Ctrl Pts',(128.249981212662,106.115092712371,-26.5438108868263));
#345=CARTESIAN_POINT('Ctrl Pts',(130.682243164043,103.691919630242,8.90302792111812));
#346=CARTESIAN_POINT('Ctrl Pts',(124.641818942484,109.710351565223,37.8968358970022));
#347=CARTESIAN_POINT('Ctrl Pts',(117.588264009775,116.740107871399,54.0885286132227));
#348=CARTESIAN_POINT('Ctrl Pts',(114.880506825969,119.438917858446,59.3022823673497));
#349=CARTESIAN_POINT('Ctrl Pts',(114.983282568329,119.460668329618,-59.3442625744251));
#350=CARTESIAN_POINT('Ctrl Pts',(120.4077466436,114.057148131086,-48.9150219813494));
#351=CARTESIAN_POINT('Ctrl Pts',(128.378015712631,106.117652301723,-26.5723030577868));
#352=CARTESIAN_POINT('Ctrl Pts',(130.816423663176,103.688659053659,8.91329564817982));
#353=CARTESIAN_POINT('Ctrl Pts',(124.761807843694,109.719897978094,37.932716502842));
#354=CARTESIAN_POINT('Ctrl Pts',(117.695514605677,116.758908230638,54.1296422785076));
#355=CARTESIAN_POINT('Ctrl Pts',(114.983282568014,119.460668329932,59.3442625750312));
#356=CARTESIAN_POINT('',(114.555984555985,119.,59.3121100822507));
#357=CARTESIAN_POINT('',(115.,119.444015444015,59.3121100822508));
#358=CARTESIAN_POINT('Origin',(115.056740497593,118.943259501222,59.4326100838558));
#359=CARTESIAN_POINT('',(114.555984555985,119.,-59.3121100822507));
#360=CARTESIAN_POINT('Origin',(0.,234.,0.));
#361=CARTESIAN_POINT('',(115.,119.444015444015,-59.3121100822508));
#362=CARTESIAN_POINT('Origin',(115.056740498776,118.943259502407,-59.4326100838553));
#363=CARTESIAN_POINT('Origin',(0.,234.,0.));
#364=CARTESIAN_POINT('Ctrl Pts',(114.578752893903,119.,59.2681144062973));
#365=CARTESIAN_POINT('Ctrl Pts',(114.578752893902,119.421247106098,59.2681144062973));
#366=CARTESIAN_POINT('Ctrl Pts',(115.,119.421247106097,59.2681144062973));
#367=CARTESIAN_POINT('Ctrl Pts',(68.0026086346879,119.,149.310400672458));
#368=CARTESIAN_POINT('Ctrl Pts',(68.0026086346322,165.997391365368,149.310400672458));
#369=CARTESIAN_POINT('Ctrl Pts',(115.,165.997391365312,149.310400672458));
#370=CARTESIAN_POINT('Ctrl Pts',(-30.498695682656,119.,125.342848067438));
#371=CARTESIAN_POINT('Ctrl Pts',(-30.4986956828285,264.498695682828,125.342848067438));
#372=CARTESIAN_POINT('Ctrl Pts',(115.,264.498695682656,125.342848067438));
#373=CARTESIAN_POINT('Ctrl Pts',(-129.,119.,101.375295462417));
#374=CARTESIAN_POINT('Ctrl Pts',(-129.000000000289,363.000000000289,101.375295462417));
#375=CARTESIAN_POINT('Ctrl Pts',(115.,363.,101.375295462417));
#376=CARTESIAN_POINT('Ctrl Pts',(-129.,119.,5.72875080706581E-14));
#377=CARTESIAN_POINT('Ctrl Pts',(-129.000000000289,363.000000000289,5.72875080706581E-14));
#378=CARTESIAN_POINT('Ctrl Pts',(115.,363.,5.72875080706581E-14));
#379=CARTESIAN_POINT('Ctrl Pts',(-129.,119.,-101.375295462417));
#380=CARTESIAN_POINT('Ctrl Pts',(-129.000000000289,363.000000000289,-101.375295462417));
#381=CARTESIAN_POINT('Ctrl Pts',(115.,363.,-101.375295462417));
#382=CARTESIAN_POINT('Ctrl Pts',(-30.4986956826562,119.,-125.342848067438));
#383=CARTESIAN_POINT('Ctrl Pts',(-30.4986956828286,264.498695682829,-125.342848067438));
#384=CARTESIAN_POINT('Ctrl Pts',(115.,264.498695682656,-125.342848067438));
#385=CARTESIAN_POINT('Ctrl Pts',(68.0026086346877,119.,-149.310400672458));
#386=CARTESIAN_POINT('Ctrl Pts',(68.002608634632,165.997391365368,-149.310400672458));
#387=CARTESIAN_POINT('Ctrl Pts',(115.,165.997391365312,-149.310400672458));
#388=CARTESIAN_POINT('Ctrl Pts',(114.578752893903,119.,-59.2681144062974));
#389=CARTESIAN_POINT('Ctrl Pts',(114.578752893902,119.421247106098,-59.2681144062974));
#390=CARTESIAN_POINT('Ctrl Pts',(115.,119.421247106097,-59.2681144062974));
#391=CARTESIAN_POINT('Origin',(0.,119.,0.));
#392=CARTESIAN_POINT('Origin',(115.,234.,0.));
#393=CARTESIAN_POINT('Origin',(0.,0.,0.));
#394=CARTESIAN_POINT('',(129.,0.5,1.57979437090009E-14));
#395=CARTESIAN_POINT('Origin',(0.,0.5,0.));
#396=CARTESIAN_POINT('Origin',(233.5,234.,0.));
#397=CARTESIAN_POINT('',(233.5,121.5,1.37772764904077E-14));
#398=CARTESIAN_POINT('Origin',(233.5,234.,0.));
#399=CARTESIAN_POINT('',(234.,121.,-1.38385088303651E-14));
#400=CARTESIAN_POINT('Origin',(234.,234.,0.));
#401=CARTESIAN_POINT('Origin',(234.,234.,1.83602774098217E-15));
#402=CARTESIAN_POINT('',(234.,105.5,1.57367113690435E-14));
#403=CARTESIAN_POINT('Origin',(234.,234.,0.));
#404=CARTESIAN_POINT('Origin',(234.,234.,0.));
#405=CARTESIAN_POINT('',(128.,121.5,1.37772764904077E-14));
#406=CARTESIAN_POINT('Origin',(128.,234.,0.));
#407=CARTESIAN_POINT('Origin',(233.5,234.,0.));
#408=CARTESIAN_POINT('',(233.5,105.,-1.57979437090009E-14));
#409=CARTESIAN_POINT('Origin',(233.5,234.,0.));
#410=CARTESIAN_POINT('Origin',(115.,234.,0.));
#411=CARTESIAN_POINT('Origin',(0.,0.5,0.));
#412=CARTESIAN_POINT('',(112.5,0.5,-1.37772764904077E-14));
#413=CARTESIAN_POINT('Origin',(0.,0.5,0.));
#414=CARTESIAN_POINT('',(113.,0.,1.38385088303651E-14));
#415=CARTESIAN_POINT('Origin',(0.,0.,0.));
#416=CARTESIAN_POINT('Origin',(-1.23326617549764E-14,0.,1.83602774098217E-15));
#417=CARTESIAN_POINT('',(128.5,0.,-1.57367113690435E-14));
#418=CARTESIAN_POINT('Origin',(0.,0.,0.));
#419=CARTESIAN_POINT('Origin',(0.,0.,0.));
#420=CARTESIAN_POINT('',(112.5,106.,1.37772764904077E-14));
#421=CARTESIAN_POINT('Origin',(0.,106.,0.));
#422=CARTESIAN_POINT('Origin',(0.,0.5,0.));
#423=CARTESIAN_POINT('Origin',(115.,234.,0.));
#424=CARTESIAN_POINT('',(128.,125.5,1.32874177707488E-14));
#425=CARTESIAN_POINT('Origin',(128.,234.,0.));
#426=CARTESIAN_POINT('',(115.,342.5,2.40918396343659E-14));
#427=CARTESIAN_POINT('Origin',(115.,234.,0.));
#428=CARTESIAN_POINT('Origin',(115.,119.,0.));
#429=CARTESIAN_POINT('',(-108.5,119.,2.40918396343659E-14));
#430=CARTESIAN_POINT('Origin',(0.,119.,0.));
#431=CARTESIAN_POINT('Origin',(0.,0.,0.));
#432=CARTESIAN_POINT('',(108.5,106.,-1.32874177707488E-14));
#433=CARTESIAN_POINT('Origin',(0.,106.,0.));
#434=CARTESIAN_POINT('Origin',(128.,234.,0.));
#435=CARTESIAN_POINT('Origin',(-5.35872999351976E-15,106.,0.));
#436=UNCERTAINTY_MEASURE_WITH_UNIT(LENGTH_MEASURE(0.01),#440,
'DISTANCE_ACCURACY_VALUE',
'Maximum model space distance between geometric entities at asserted c
onnectivities');
#437=UNCERTAINTY_MEASURE_WITH_UNIT(LENGTH_MEASURE(1.E-6),#440,
'DISTANCE_ACCURACY_VALUE',
'Maximum model space distance between geometric entities at asserted c
onnectivities');
#438=(
GEOMETRIC_REPRESENTATION_CONTEXT(3)
GLOBAL_UNCERTAINTY_ASSIGNED_CONTEXT((#436))
GLOBAL_UNIT_ASSIGNED_CONTEXT((#440,#443,#441))
REPRESENTATION_CONTEXT('','3D')
);
#439=(
GEOMETRIC_REPRESENTATION_CONTEXT(3)
GLOBAL_UNCERTAINTY_ASSIGNED_CONTEXT((#437))
GLOBAL_UNIT_ASSIGNED_CONTEXT((#440,#443,#441))
REPRESENTATION_CONTEXT('','3D')
);
#440=(
LENGTH_UNIT()
NAMED_UNIT(*)
SI_UNIT(.MILLI.,.METRE.)
);
#441=(
NAMED_UNIT(*)
SI_UNIT($,.STERADIAN.)
SOLID_ANGLE_UNIT()
);
#442=DIMENSIONAL_EXPONENTS(0.,0.,0.,0.,0.,0.,0.);
#443=(
CONVERSION_BASED_UNIT('degree',#445)
NAMED_UNIT(#442)
PLANE_ANGLE_UNIT()
);
#444=(
NAMED_UNIT(*)
PLANE_ANGLE_UNIT()
SI_UNIT($,.RADIAN.)
);
#445=PLANE_ANGLE_MEASURE_WITH_UNIT(PLANE_ANGLE_MEASURE(0.01745329252),#444);
#446=SHAPE_DEFINITION_REPRESENTATION(#447,#448);
#447=PRODUCT_DEFINITION_SHAPE('',$,#450);
#448=SHAPE_REPRESENTATION('',(#212),#438);
#449=PRODUCT_DEFINITION_CONTEXT('part definition',#454,'design');
#450=PRODUCT_DEFINITION('EL502250','EL502250',#451,#449);
#451=PRODUCT_DEFINITION_FORMATION('',$,#456);
#452=PRODUCT_RELATED_PRODUCT_CATEGORY('EL502250','EL502250',(#456));
#453=APPLICATION_PROTOCOL_DEFINITION('international standard',
'automotive_design',2009,#454);
#454=APPLICATION_CONTEXT(
'Core Data for Automotive Mechanical Design Process');
#455=PRODUCT_CONTEXT('part definition',#454,'mechanical');
#456=PRODUCT('EL502250','EL502250',$,(#455));
#457=PRESENTATION_STYLE_ASSIGNMENT((#458));
#458=SURFACE_STYLE_USAGE(.BOTH.,#459);
#459=SURFACE_SIDE_STYLE('',(#460));
#460=SURFACE_STYLE_FILL_AREA(#461);
#461=FILL_AREA_STYLE('',(#462));
#462=FILL_AREA_STYLE_COLOUR('',#463);
#463=COLOUR_RGB('',0.8,0.8,0.8);
ENDSEC;
END-ISO-10303-21;
