ISO-10303-21;
HEADER;
/* Generated by software containing ST-Developer
 * from STEP Tools, Inc. (www.steptools.com) 
 */

FILE_DESCRIPTION(
/* description */ (''),
/* implementation_level */ '2;1');

FILE_NAME(
/* name */ 
'Q:\\Ric010\\FF7\\FIPlastiCAD\\FIP\\Lavoro\\PVC Fittings\\PVC Fittings
 STEP\\TRIV\\TRIV110050.ipt.stp',
/* time_stamp */ '2013-10-01T14:56:43+02:00',
/* author */ ('bfaro'),
/* organization */ (''),
/* preprocessor_version */ 'ST-DEVELOPER v15.2',
/* originating_system */ 'Autodesk Inventor 2014',
/* authorisation */ '');

FILE_SCHEMA (('AUTOMOTIVE_DESIGN { 1 0 10303 214 3 1 1 }'));
ENDSEC;

DATA;
#10=SHAPE_REPRESENTATION_RELATIONSHIP('SRR','None',#451,#11);
#11=ADVANCED_BREP_SHAPE_REPRESENTATION($,(#181),#442);
#12=STYLED_ITEM($,(#459),#181);
#13=PLANE($,#202);
#14=PLANE($,#203);
#15=PLANE($,#204);
#16=PLANE($,#205);
#17=PLANE($,#206);
#18=PLANE($,#207);
#19=FACE_BOUND($,#53,.T.);
#20=FACE_BOUND($,#55,.T.);
#21=FACE_BOUND($,#56,.T.);
#22=FACE_BOUND($,#58,.T.);
#23=FACE_BOUND($,#59,.T.);
#24=FACE_BOUND($,#61,.T.);
#25=FACE_BOUND($,#63,.T.);
#26=FACE_BOUND($,#65,.T.);
#27=FACE_BOUND($,#67,.T.);
#28=FACE_BOUND($,#69,.T.);
#29=FACE_BOUND($,#70,.T.);
#30=FACE_BOUND($,#71,.T.);
#31=FACE_BOUND($,#73,.T.);
#32=FACE_BOUND($,#75,.T.);
#33=FACE_BOUND($,#76,.T.);
#34=FACE_BOUND($,#77,.T.);
#35=FACE_BOUND($,#78,.T.);
#36=FACE_BOUND($,#79,.T.);
#37=B_SPLINE_CURVE_WITH_KNOTS($,3,(#265,#266,#267,#268,#269,#270,#271,#272,
#273,#274,#275,#276,#277,#278,#279,#280,#281,#282,#283,#284,#285,#286,#287,
#288,#289,#290,#291,#292,#293,#294,#295,#296,#297,#298,#299,#300,#301,#302,
#303,#304,#305,#306,#307,#308,#309,#310,#311,#312,#313,#314,#315,#316,#317,
#318,#319,#320,#321,#322,#323,#324,#325,#326,#327,#328,#329,#330),
 .UNSPECIFIED.,.T.,.F.,(4,2,2,2,2,2,2,2,2,2,2,2,2,2,2,2,2,2,2,2,2,2,2,2,
2,2,2,2,2,2,2,2,4),(0.,0.459806516118856,0.919613032237712,1.37941954835657,
1.83922606447542,2.29823063929892,2.75723521412241,3.2162397889459,3.67524436376939,
4.13424893859288,4.59325351341638,5.05225808823987,5.51126266306336,5.97106917918222,
6.43087569530107,6.89068221141993,7.35048872753878,7.81029524365126,8.27010175976373,
8.72990827587621,9.18971479198868,9.64871936681028,10.1077239416319,10.5667285164535,
11.0257330912751,11.4847376660967,11.9437422409183,12.4027468157399,12.8617513905615,
13.321557906674,13.7813644227864,14.2411709388989,14.7009774550114),
 .UNSPECIFIED.);
#38=B_SPLINE_CURVE_WITH_KNOTS($,3,(#343,#344,#345,#346,#347,#348,#349,#350,
#351,#352,#353,#354,#355,#356,#357,#358,#359,#360),.UNSPECIFIED.,.F.,.F.,
(4,2,2,2,2,2,2,2,4),(9.34560509588515,9.93024508306457,10.514885070244,
11.0995250574234,11.6841650446028,12.2677256943983,12.8512863441937,13.4348469939892,
14.0184076437846),.UNSPECIFIED.);
#39=B_SPLINE_CURVE_WITH_KNOTS($,3,(#362,#363,#364,#365,#366,#367,#368,#369,
#370,#371,#372,#373,#374,#375,#376,#377,#378,#379),.UNSPECIFIED.,.F.,.F.,
(4,2,2,2,2,2,2,2,4),(-9.34560509588515,-8.76096510870076,-8.17632512151637,
-7.59168513433198,-7.00704514714759,-6.4234844973463,-5.83992384754501,
-5.25636319774372,-4.67280254794242),.UNSPECIFIED.);
#40=B_SPLINE_CURVE_WITH_KNOTS($,3,(#381,#382,#383,#384,#385,#386,#387,#388,
#389,#390,#391,#392,#393,#394,#395,#396,#397,#398),.UNSPECIFIED.,.F.,.F.,
(4,2,2,2,2,2,2,2,4),(14.018407643742,14.6019682935433,15.1855289433446,
15.7690895931459,16.3526502429472,16.9372902301316,17.521930217316,18.1065702045003,
18.6912101916847),.UNSPECIFIED.);
#41=B_SPLINE_CURVE_WITH_KNOTS($,3,(#399,#400,#401,#402,#403,#404,#405,#406,
#407,#408,#409,#410,#411,#412,#413,#414,#415,#416),.UNSPECIFIED.,.F.,.F.,
(4,2,2,2,2,2,2,2,4),(-4.67280254789979,-4.08924189810601,-3.50568124831223,
-2.92212059851845,-2.33855994872467,-1.75391996154358,-1.16927997436249,
-0.5846399871814,-3.09086090055644E-013),.UNSPECIFIED.);
#42=FACE_OUTER_BOUND($,#52,.T.);
#43=FACE_OUTER_BOUND($,#54,.T.);
#44=FACE_OUTER_BOUND($,#57,.T.);
#45=FACE_OUTER_BOUND($,#60,.T.);
#46=FACE_OUTER_BOUND($,#62,.T.);
#47=FACE_OUTER_BOUND($,#64,.T.);
#48=FACE_OUTER_BOUND($,#66,.T.);
#49=FACE_OUTER_BOUND($,#68,.T.);
#50=FACE_OUTER_BOUND($,#72,.T.);
#51=FACE_OUTER_BOUND($,#74,.T.);
#52=EDGE_LOOP($,(#126));
#53=EDGE_LOOP($,(#127));
#54=EDGE_LOOP($,(#128));
#55=EDGE_LOOP($,(#129));
#56=EDGE_LOOP($,(#130));
#57=EDGE_LOOP($,(#131));
#58=EDGE_LOOP($,(#132));
#59=EDGE_LOOP($,(#133,#134,#135,#136));
#60=EDGE_LOOP($,(#137));
#61=EDGE_LOOP($,(#138));
#62=EDGE_LOOP($,(#139,#140,#141,#142));
#63=EDGE_LOOP($,(#143));
#64=EDGE_LOOP($,(#144));
#65=EDGE_LOOP($,(#145));
#66=EDGE_LOOP($,(#146));
#67=EDGE_LOOP($,(#147));
#68=EDGE_LOOP($,(#148));
#69=EDGE_LOOP($,(#149));
#70=EDGE_LOOP($,(#150));
#71=EDGE_LOOP($,(#151));
#72=EDGE_LOOP($,(#152));
#73=EDGE_LOOP($,(#153));
#74=EDGE_LOOP($,(#154));
#75=EDGE_LOOP($,(#155));
#76=EDGE_LOOP($,(#156));
#77=EDGE_LOOP($,(#157));
#78=EDGE_LOOP($,(#158));
#79=EDGE_LOOP($,(#159));
#80=CIRCLE($,#184,24.);
#81=CIRCLE($,#186,53.);
#82=CIRCLE($,#187,53.);
#83=CIRCLE($,#189,66.5);
#84=CIRCLE($,#190,66.5);
#85=CIRCLE($,#192,55.);
#86=CIRCLE($,#193,55.);
#87=CIRCLE($,#195,30.5);
#88=CIRCLE($,#197,55.);
#89=CIRCLE($,#198,55.);
#90=CIRCLE($,#200,25.);
#91=CIRCLE($,#201,25.);
#92=VERTEX_POINT($,#262);
#93=VERTEX_POINT($,#264);
#94=VERTEX_POINT($,#332);
#95=VERTEX_POINT($,#334);
#96=VERTEX_POINT($,#337);
#97=VERTEX_POINT($,#339);
#98=VERTEX_POINT($,#341);
#99=VERTEX_POINT($,#342);
#100=VERTEX_POINT($,#361);
#101=VERTEX_POINT($,#380);
#102=VERTEX_POINT($,#418);
#103=VERTEX_POINT($,#420);
#104=VERTEX_POINT($,#423);
#105=VERTEX_POINT($,#426);
#106=VERTEX_POINT($,#428);
#107=VERTEX_POINT($,#431);
#108=VERTEX_POINT($,#433);
#109=EDGE_CURVE($,#92,#92,#80,.T.);
#110=EDGE_CURVE($,#93,#93,#37,.T.);
#111=EDGE_CURVE($,#94,#94,#81,.T.);
#112=EDGE_CURVE($,#95,#95,#82,.T.);
#113=EDGE_CURVE($,#96,#96,#83,.T.);
#114=EDGE_CURVE($,#97,#97,#84,.T.);
#115=EDGE_CURVE($,#98,#99,#38,.T.);
#116=EDGE_CURVE($,#98,#100,#39,.T.);
#117=EDGE_CURVE($,#100,#101,#40,.T.);
#118=EDGE_CURVE($,#99,#101,#41,.T.);
#119=EDGE_CURVE($,#102,#102,#85,.T.);
#120=EDGE_CURVE($,#103,#103,#86,.T.);
#121=EDGE_CURVE($,#104,#104,#87,.T.);
#122=EDGE_CURVE($,#105,#105,#88,.T.);
#123=EDGE_CURVE($,#106,#106,#89,.T.);
#124=EDGE_CURVE($,#107,#107,#90,.T.);
#125=EDGE_CURVE($,#108,#108,#91,.T.);
#126=ORIENTED_EDGE($,*,*,#109,.F.);
#127=ORIENTED_EDGE($,*,*,#110,.F.);
#128=ORIENTED_EDGE($,*,*,#111,.F.);
#129=ORIENTED_EDGE($,*,*,#112,.F.);
#130=ORIENTED_EDGE($,*,*,#110,.T.);
#131=ORIENTED_EDGE($,*,*,#113,.F.);
#132=ORIENTED_EDGE($,*,*,#114,.T.);
#133=ORIENTED_EDGE($,*,*,#115,.F.);
#134=ORIENTED_EDGE($,*,*,#116,.T.);
#135=ORIENTED_EDGE($,*,*,#117,.T.);
#136=ORIENTED_EDGE($,*,*,#118,.F.);
#137=ORIENTED_EDGE($,*,*,#119,.T.);
#138=ORIENTED_EDGE($,*,*,#120,.F.);
#139=ORIENTED_EDGE($,*,*,#116,.F.);
#140=ORIENTED_EDGE($,*,*,#115,.T.);
#141=ORIENTED_EDGE($,*,*,#118,.T.);
#142=ORIENTED_EDGE($,*,*,#117,.F.);
#143=ORIENTED_EDGE($,*,*,#121,.F.);
#144=ORIENTED_EDGE($,*,*,#122,.T.);
#145=ORIENTED_EDGE($,*,*,#123,.F.);
#146=ORIENTED_EDGE($,*,*,#124,.T.);
#147=ORIENTED_EDGE($,*,*,#125,.F.);
#148=ORIENTED_EDGE($,*,*,#114,.F.);
#149=ORIENTED_EDGE($,*,*,#120,.T.);
#150=ORIENTED_EDGE($,*,*,#112,.T.);
#151=ORIENTED_EDGE($,*,*,#119,.F.);
#152=ORIENTED_EDGE($,*,*,#113,.T.);
#153=ORIENTED_EDGE($,*,*,#122,.F.);
#154=ORIENTED_EDGE($,*,*,#121,.T.);
#155=ORIENTED_EDGE($,*,*,#124,.F.);
#156=ORIENTED_EDGE($,*,*,#111,.T.);
#157=ORIENTED_EDGE($,*,*,#123,.T.);
#158=ORIENTED_EDGE($,*,*,#109,.T.);
#159=ORIENTED_EDGE($,*,*,#125,.T.);
#160=CYLINDRICAL_SURFACE($,#183,24.);
#161=CYLINDRICAL_SURFACE($,#185,53.);
#162=CYLINDRICAL_SURFACE($,#188,66.5);
#163=CYLINDRICAL_SURFACE($,#191,55.);
#164=CYLINDRICAL_SURFACE($,#194,30.5);
#165=CYLINDRICAL_SURFACE($,#196,55.);
#166=CYLINDRICAL_SURFACE($,#199,25.0000000000002);
#167=ADVANCED_FACE($,(#42,#19),#160,.F.);
#168=ADVANCED_FACE($,(#43,#20,#21),#161,.F.);
#169=ADVANCED_FACE($,(#44,#22,#23),#162,.T.);
#170=ADVANCED_FACE($,(#45,#24),#163,.F.);
#171=ADVANCED_FACE($,(#46,#25),#164,.T.);
#172=ADVANCED_FACE($,(#47,#26),#165,.F.);
#173=ADVANCED_FACE($,(#48,#27),#166,.F.);
#174=ADVANCED_FACE($,(#49,#28),#13,.T.);
#175=ADVANCED_FACE($,(#29,#30),#14,.T.);
#176=ADVANCED_FACE($,(#50,#31),#15,.T.);
#177=ADVANCED_FACE($,(#51,#32),#16,.T.);
#178=ADVANCED_FACE($,(#33,#34),#17,.T.);
#179=ADVANCED_FACE($,(#35,#36),#18,.T.);
#180=CLOSED_SHELL($,(#167,#168,#169,#170,#171,#172,#173,#174,#175,#176,
#177,#178,#179));
#181=MANIFOLD_SOLID_BREP('Solido1',#180);
#182=AXIS2_PLACEMENT_3D('placement',#260,#208,#209);
#183=AXIS2_PLACEMENT_3D($,#261,#210,#211);
#184=AXIS2_PLACEMENT_3D($,#263,#212,#213);
#185=AXIS2_PLACEMENT_3D($,#331,#214,#215);
#186=AXIS2_PLACEMENT_3D($,#333,#216,#217);
#187=AXIS2_PLACEMENT_3D($,#335,#218,#219);
#188=AXIS2_PLACEMENT_3D($,#336,#220,#221);
#189=AXIS2_PLACEMENT_3D($,#338,#222,#223);
#190=AXIS2_PLACEMENT_3D($,#340,#224,#225);
#191=AXIS2_PLACEMENT_3D($,#417,#226,#227);
#192=AXIS2_PLACEMENT_3D($,#419,#228,#229);
#193=AXIS2_PLACEMENT_3D($,#421,#230,#231);
#194=AXIS2_PLACEMENT_3D($,#422,#232,#233);
#195=AXIS2_PLACEMENT_3D($,#424,#234,#235);
#196=AXIS2_PLACEMENT_3D($,#425,#236,#237);
#197=AXIS2_PLACEMENT_3D($,#427,#238,#239);
#198=AXIS2_PLACEMENT_3D($,#429,#240,#241);
#199=AXIS2_PLACEMENT_3D($,#430,#242,#243);
#200=AXIS2_PLACEMENT_3D($,#432,#244,#245);
#201=AXIS2_PLACEMENT_3D($,#434,#246,#247);
#202=AXIS2_PLACEMENT_3D($,#435,#248,#249);
#203=AXIS2_PLACEMENT_3D($,#436,#250,#251);
#204=AXIS2_PLACEMENT_3D($,#437,#252,#253);
#205=AXIS2_PLACEMENT_3D($,#438,#254,#255);
#206=AXIS2_PLACEMENT_3D($,#439,#256,#257);
#207=AXIS2_PLACEMENT_3D($,#440,#258,#259);
#208=DIRECTION('axis',(0.,0.,1.));
#209=DIRECTION('refdir',(1.,0.,0.));
#210=DIRECTION('center_axis',(-1.,0.,-4.48966412314005E-011));
#211=DIRECTION('ref_axis',(-4.48966412314005E-011,0.,1.));
#212=DIRECTION('center_axis',(-1.,0.,-4.489664E-011));
#213=DIRECTION('ref_axis',(-4.48966412314005E-011,0.,1.));
#214=DIRECTION('center_axis',(0.,0.,-1.));
#215=DIRECTION('ref_axis',(-1.,0.,0.));
#216=DIRECTION('center_axis',(0.,0.,-1.));
#217=DIRECTION('ref_axis',(-1.,0.,0.));
#218=DIRECTION('center_axis',(0.,0.,1.));
#219=DIRECTION('ref_axis',(-1.,0.,0.));
#220=DIRECTION('center_axis',(0.,0.,1.));
#221=DIRECTION('ref_axis',(1.,0.,0.));
#222=DIRECTION('center_axis',(0.,0.,1.));
#223=DIRECTION('ref_axis',(1.,0.,0.));
#224=DIRECTION('center_axis',(0.,0.,1.));
#225=DIRECTION('ref_axis',(1.,0.,0.));
#226=DIRECTION('center_axis',(0.,0.,1.));
#227=DIRECTION('ref_axis',(1.,0.,0.));
#228=DIRECTION('center_axis',(0.,0.,1.));
#229=DIRECTION('ref_axis',(1.,0.,0.));
#230=DIRECTION('center_axis',(0.,0.,1.));
#231=DIRECTION('ref_axis',(1.,0.,0.));
#232=DIRECTION('center_axis',(1.,0.,4.489664E-011));
#233=DIRECTION('ref_axis',(4.489664E-011,0.,-1.));
#234=DIRECTION('center_axis',(1.,0.,4.489664E-011));
#235=DIRECTION('ref_axis',(4.489664E-011,0.,-1.));
#236=DIRECTION('center_axis',(0.,0.,1.));
#237=DIRECTION('ref_axis',(1.,0.,0.));
#238=DIRECTION('center_axis',(0.,0.,1.));
#239=DIRECTION('ref_axis',(1.,0.,0.));
#240=DIRECTION('center_axis',(0.,0.,1.));
#241=DIRECTION('ref_axis',(1.,0.,0.));
#242=DIRECTION('center_axis',(1.,1.51757551628438E-013,4.4897549347281E-011));
#243=DIRECTION('ref_axis',(4.4897419115841E-011,0.,-1.));
#244=DIRECTION('center_axis',(1.,0.,4.489664E-011));
#245=DIRECTION('ref_axis',(4.489664E-011,0.,-1.));
#246=DIRECTION('center_axis',(1.,0.,4.489664E-011));
#247=DIRECTION('ref_axis',(4.489664E-011,0.,-1.));
#248=DIRECTION('center_axis',(0.,0.,-1.));
#249=DIRECTION('ref_axis',(-1.,0.,0.));
#250=DIRECTION('center_axis',(0.,0.,-1.));
#251=DIRECTION('ref_axis',(-1.,0.,0.));
#252=DIRECTION('center_axis',(0.,0.,1.));
#253=DIRECTION('ref_axis',(1.,0.,0.));
#254=DIRECTION('center_axis',(1.,0.,4.489664E-011));
#255=DIRECTION('ref_axis',(4.48963533017377E-011,0.,-1.));
#256=DIRECTION('center_axis',(0.,0.,1.));
#257=DIRECTION('ref_axis',(1.,0.,0.));
#258=DIRECTION('center_axis',(1.,0.,4.489664E-011));
#259=DIRECTION('ref_axis',(4.48963533017377E-011,0.,-1.));
#260=CARTESIAN_POINT('',(0.,0.,0.));
#261=CARTESIAN_POINT('Origin',(61.,0.,122.00000000273));
#262=CARTESIAN_POINT('',(61.0000000010775,2.93915231795365E-015,98.00000000273));
#263=CARTESIAN_POINT('Origin',(61.,0.,122.00000000273));
#264=CARTESIAN_POINT('',(47.2546294028426,24.,122.000000002113));
#265=CARTESIAN_POINT('Ctrl Pts',(47.2546294028426,24.,122.000000002113));
#266=CARTESIAN_POINT('Ctrl Pts',(47.2546294028426,24.,123.532688389176));
#267=CARTESIAN_POINT('Ctrl Pts',(47.3313465754496,23.8508457559966,125.108988832161));
#268=CARTESIAN_POINT('Ctrl Pts',(47.6380706230755,23.2321638862564,128.228580611051));
#269=CARTESIAN_POINT('Ctrl Pts',(47.8676387741438,22.7628640645671,129.771960241322));
#270=CARTESIAN_POINT('Ctrl Pts',(48.4337236021729,21.5321424764514,132.719994649693));
#271=CARTESIAN_POINT('Ctrl Pts',(48.7699970862439,20.7697440458269,134.127416407667));
#272=CARTESIAN_POINT('Ctrl Pts',(49.4801240130742,19.0161039904953,136.725633628906));
#273=CARTESIAN_POINT('Ctrl Pts',(49.8532848930182,18.0246503016721,137.916475197512));
#274=CARTESIAN_POINT('Ctrl Pts',(50.5652154167809,15.9183136127648,140.022811886451));
#275=CARTESIAN_POINT('Ctrl Pts',(50.9301403301736,14.7283688461496,141.014017302807));
#276=CARTESIAN_POINT('Ctrl Pts',(51.6107889006023,12.1297366806557,142.768418116306));
#277=CARTESIAN_POINT('Ctrl Pts',(51.9259594988619,10.7209969191804,143.531750475137));
#278=CARTESIAN_POINT('Ctrl Pts',(52.4487201939133,7.77025071397259,144.763551322943));
#279=CARTESIAN_POINT('Ctrl Pts',(52.6563932981732,6.2255113942706,145.233000888933));
#280=CARTESIAN_POINT('Ctrl Pts',(52.9321179317173,3.10542083436052,145.851324572833));
#281=CARTESIAN_POINT('Ctrl Pts',(53.,1.53001524941164,146.000000002371));
#282=CARTESIAN_POINT('Ctrl Pts',(53.,-1.53001524941164,146.000000002371));
#283=CARTESIAN_POINT('Ctrl Pts',(52.9321179317173,-3.10542083436051,145.851324572833));
#284=CARTESIAN_POINT('Ctrl Pts',(52.6563932981732,-6.2255113942706,145.233000888933));
#285=CARTESIAN_POINT('Ctrl Pts',(52.4487201939133,-7.77025071397258,144.763551322943));
#286=CARTESIAN_POINT('Ctrl Pts',(51.9259594988619,-10.7209969191804,143.531750475137));
#287=CARTESIAN_POINT('Ctrl Pts',(51.6107889006023,-12.1297366806557,142.768418116306));
#288=CARTESIAN_POINT('Ctrl Pts',(50.9301403301736,-14.7283688461496,141.014017302807));
#289=CARTESIAN_POINT('Ctrl Pts',(50.5652154167809,-15.9183136127648,140.022811886451));
#290=CARTESIAN_POINT('Ctrl Pts',(49.8532848930182,-18.0246503016721,137.916475197512));
#291=CARTESIAN_POINT('Ctrl Pts',(49.4801240130742,-19.0161039904954,136.725633628906));
#292=CARTESIAN_POINT('Ctrl Pts',(48.7699970862439,-20.7697440458269,134.127416407667));
#293=CARTESIAN_POINT('Ctrl Pts',(48.4337236021729,-21.5321424764514,132.719994649693));
#294=CARTESIAN_POINT('Ctrl Pts',(47.8676387741438,-22.7628640645671,129.771960241322));
#295=CARTESIAN_POINT('Ctrl Pts',(47.6380706230755,-23.2321638862564,128.228580611051));
#296=CARTESIAN_POINT('Ctrl Pts',(47.3313465754496,-23.8508457559966,125.108988832161));
#297=CARTESIAN_POINT('Ctrl Pts',(47.2546294028426,-24.,123.532688389176));
#298=CARTESIAN_POINT('Ctrl Pts',(47.2546294028426,-24.,120.467311615071));
#299=CARTESIAN_POINT('Ctrl Pts',(47.3313465754475,-23.8508457560006,118.891011172107));
#300=CARTESIAN_POINT('Ctrl Pts',(47.638070623069,-23.2321638862696,115.77141939326));
#301=CARTESIAN_POINT('Ctrl Pts',(47.867638774135,-22.7628640645855,114.228039763013));
#302=CARTESIAN_POINT('Ctrl Pts',(48.4337236021612,-21.5321424764778,111.280005354692));
#303=CARTESIAN_POINT('Ctrl Pts',(48.7699970862315,-20.769744045856,109.872583596745));
#304=CARTESIAN_POINT('Ctrl Pts',(49.4801240130616,-19.016103990528,107.274366375562));
#305=CARTESIAN_POINT('Ctrl Pts',(49.853284893006,-18.0246503017057,106.083524806985));
#306=CARTESIAN_POINT('Ctrl Pts',(50.5652154167727,-15.9183136127915,103.977188118094));
#307=CARTESIAN_POINT('Ctrl Pts',(50.9301403301686,-14.7283688461677,102.985982701762));
#308=CARTESIAN_POINT('Ctrl Pts',(51.6107889006018,-12.1297366806588,101.231581888312));
#309=CARTESIAN_POINT('Ctrl Pts',(51.9259594988626,-10.7209969191773,100.468249529506));
#310=CARTESIAN_POINT('Ctrl Pts',(52.4487201939151,-7.77025071396156,99.2364486817449));
#311=CARTESIAN_POINT('Ctrl Pts',(52.6563932981746,-6.22551139425804,98.766999115775));
#312=CARTESIAN_POINT('Ctrl Pts',(52.9321179317178,-3.10542083435032,98.1486754319013));
#313=CARTESIAN_POINT('Ctrl Pts',(53.,-1.53001524940533,98.0000000023708));
#314=CARTESIAN_POINT('Ctrl Pts',(53.,1.53001524940533,98.0000000023708));
#315=CARTESIAN_POINT('Ctrl Pts',(52.9321179317178,3.10542083435031,98.1486754319013));
#316=CARTESIAN_POINT('Ctrl Pts',(52.6563932981746,6.22551139425805,98.766999115775));
#317=CARTESIAN_POINT('Ctrl Pts',(52.4487201939151,7.77025071396158,99.2364486817449));
#318=CARTESIAN_POINT('Ctrl Pts',(51.9259594988626,10.7209969191773,100.468249529506));
#319=CARTESIAN_POINT('Ctrl Pts',(51.6107889006018,12.1297366806588,101.231581888312));
#320=CARTESIAN_POINT('Ctrl Pts',(50.9301403301686,14.7283688461677,102.985982701762));
#321=CARTESIAN_POINT('Ctrl Pts',(50.5652154167727,15.9183136127915,103.977188118094));
#322=CARTESIAN_POINT('Ctrl Pts',(49.853284893006,18.0246503017057,106.083524806985));
#323=CARTESIAN_POINT('Ctrl Pts',(49.4801240130616,19.016103990528,107.274366375562));
#324=CARTESIAN_POINT('Ctrl Pts',(48.7699970862315,20.769744045856,109.872583596745));
#325=CARTESIAN_POINT('Ctrl Pts',(48.4337236021612,21.5321424764778,111.280005354692));
#326=CARTESIAN_POINT('Ctrl Pts',(47.867638774135,22.7628640645855,114.228039763013));
#327=CARTESIAN_POINT('Ctrl Pts',(47.638070623069,23.2321638862696,115.77141939326));
#328=CARTESIAN_POINT('Ctrl Pts',(47.3313465754476,23.8508457560006,118.891011172107));
#329=CARTESIAN_POINT('Ctrl Pts',(47.2546294028426,24.,120.467311615071));
#330=CARTESIAN_POINT('Ctrl Pts',(47.2546294028426,24.,122.000000002113));
#331=CARTESIAN_POINT('Origin',(0.,0.,183.));
#332=CARTESIAN_POINT('',(53.,6.49062803548097E-015,183.));
#333=CARTESIAN_POINT('Origin',(0.,0.,183.));
#334=CARTESIAN_POINT('',(53.,6.49062803548097E-015,61.));
#335=CARTESIAN_POINT('Origin',(0.,0.,61.));
#336=CARTESIAN_POINT('Origin',(0.,0.,0.));
#337=CARTESIAN_POINT('',(-66.5,-8.143632E-015,244.));
#338=CARTESIAN_POINT('Origin',(0.,0.,244.));
#339=CARTESIAN_POINT('',(66.5,-1.628726E-014,0.));
#340=CARTESIAN_POINT('Origin',(0.,0.,0.));
#341=CARTESIAN_POINT('',(59.093146810777,-30.5,122.00000000265));
#342=CARTESIAN_POINT('',(66.5,-1.187868E-014,91.500000002986));
#343=CARTESIAN_POINT('Ctrl Pts',(59.0931468107766,-30.5,122.000000002653));
#344=CARTESIAN_POINT('Ctrl Pts',(59.0931468107767,-30.4999999999998,120.051200045388));
#345=CARTESIAN_POINT('Ctrl Pts',(59.1923330317649,-30.3102568771904,118.047323655893));
#346=CARTESIAN_POINT('Ctrl Pts',(59.5885955603029,-29.5236047966652,114.082166790288));
#347=CARTESIAN_POINT('Ctrl Pts',(59.8850943837509,-28.9269893806366,112.120770393866));
#348=CARTESIAN_POINT('Ctrl Pts',(60.615790685759,-27.3627672138878,108.374691697966));
#349=CARTESIAN_POINT('Ctrl Pts',(61.0496684326027,-26.3939188188842,106.586479213951));
#350=CARTESIAN_POINT('Ctrl Pts',(61.9654891158121,-24.1656600296255,103.285394756565));
#351=CARTESIAN_POINT('Ctrl Pts',(62.4465421419951,-22.9059749951296,101.772461345554));
#352=CARTESIAN_POINT('Ctrl Pts',(63.3639769471541,-20.2300110646573,99.0964974151228));
#353=CARTESIAN_POINT('Ctrl Pts',(63.8341064234858,-18.7182859194968,97.837148493543));
#354=CARTESIAN_POINT('Ctrl Pts',(64.7108513204064,-15.416649829981,95.6078699438504));
#355=CARTESIAN_POINT('Ctrl Pts',(65.1167591768393,-13.626668592099,94.6377662075523));
#356=CARTESIAN_POINT('Ctrl Pts',(65.7900023797376,-9.87694344455459,93.0720906005102));
#357=CARTESIAN_POINT('Ctrl Pts',(66.0574493196078,-7.91371454408039,92.4752713497281));
#358=CARTESIAN_POINT('Ctrl Pts',(66.4125571018368,-3.9478788860803,91.6890987915847));
#359=CARTESIAN_POINT('Ctrl Pts',(66.5,-1.94520216598495,91.5000000029856));
#360=CARTESIAN_POINT('Ctrl Pts',(66.5,0.,91.5000000029856));
#361=CARTESIAN_POINT('',(66.5,-1.628726E-014,152.50000000298));
#362=CARTESIAN_POINT('Ctrl Pts',(59.0931468107766,-30.5,122.000000002653));
#363=CARTESIAN_POINT('Ctrl Pts',(59.0931468107765,-30.5000000000002,123.948799959934));
#364=CARTESIAN_POINT('Ctrl Pts',(59.1923330317665,-30.3102568771874,125.952676349445));
#365=CARTESIAN_POINT('Ctrl Pts',(59.5885955603061,-29.5236047966587,129.917833215087));
#366=CARTESIAN_POINT('Ctrl Pts',(59.8850943837541,-28.9269893806299,131.87922961153));
#367=CARTESIAN_POINT('Ctrl Pts',(60.6157906857593,-27.3627672138868,135.625308307477));
#368=CARTESIAN_POINT('Ctrl Pts',(61.0496684326002,-26.3939188188896,137.41352079152));
#369=CARTESIAN_POINT('Ctrl Pts',(61.965489115803,-24.1656600296485,140.714605248968));
#370=CARTESIAN_POINT('Ctrl Pts',(62.4465421419822,-22.905974995164,142.227538660013));
#371=CARTESIAN_POINT('Ctrl Pts',(63.3639769471365,-20.2300110647119,144.903502590518));
#372=CARTESIAN_POINT('Ctrl Pts',(63.8341064234675,-18.7182859195588,146.162851512141));
#373=CARTESIAN_POINT('Ctrl Pts',(64.7108513203894,-15.4166498300518,148.392130061919));
#374=CARTESIAN_POINT('Ctrl Pts',(65.1167591768243,-13.626668592171,149.362233798259));
#375=CARTESIAN_POINT('Ctrl Pts',(65.7900023797278,-9.87694344462056,150.927909405375));
#376=CARTESIAN_POINT('Ctrl Pts',(66.0574493196012,-7.91371454413894,151.524728656189));
#377=CARTESIAN_POINT('Ctrl Pts',(66.412557101835,-3.9478788861155,152.310901214375));
#378=CARTESIAN_POINT('Ctrl Pts',(66.5,-1.94520216600418,152.500000002986));
#379=CARTESIAN_POINT('Ctrl Pts',(66.5,-3.60822483003176E-015,152.500000002986));
#380=CARTESIAN_POINT('',(59.093146810777,30.5,122.00000000265));
#381=CARTESIAN_POINT('Ctrl Pts',(66.5,3.19189119579733E-015,152.500000002986));
#382=CARTESIAN_POINT('Ctrl Pts',(66.5,1.94520216600418,152.500000002986));
#383=CARTESIAN_POINT('Ctrl Pts',(66.412557101835,3.94787888611549,152.310901214375));
#384=CARTESIAN_POINT('Ctrl Pts',(66.0574493196012,7.91371454413893,151.524728656189));
#385=CARTESIAN_POINT('Ctrl Pts',(65.7900023797278,9.87694344462056,150.927909405375));
#386=CARTESIAN_POINT('Ctrl Pts',(65.1167591768243,13.626668592171,149.362233798259));
#387=CARTESIAN_POINT('Ctrl Pts',(64.7108513203894,15.4166498300518,148.392130061919));
#388=CARTESIAN_POINT('Ctrl Pts',(63.8341064234675,18.7182859195588,146.162851512141));
#389=CARTESIAN_POINT('Ctrl Pts',(63.3639769471365,20.2300110647119,144.903502590518));
#390=CARTESIAN_POINT('Ctrl Pts',(62.4465421419822,22.905974995164,142.227538660013));
#391=CARTESIAN_POINT('Ctrl Pts',(61.965489115803,24.1656600296485,140.714605248968));
#392=CARTESIAN_POINT('Ctrl Pts',(61.0496684326002,26.3939188188896,137.41352079152));
#393=CARTESIAN_POINT('Ctrl Pts',(60.6157906857593,27.3627672138868,135.625308307477));
#394=CARTESIAN_POINT('Ctrl Pts',(59.8850943837541,28.9269893806299,131.87922961153));
#395=CARTESIAN_POINT('Ctrl Pts',(59.5885955603061,29.5236047966587,129.917833215087));
#396=CARTESIAN_POINT('Ctrl Pts',(59.1923330317665,30.3102568771874,125.952676349445));
#397=CARTESIAN_POINT('Ctrl Pts',(59.0931468107766,30.5,123.948799959934));
#398=CARTESIAN_POINT('Ctrl Pts',(59.0931468107766,30.5,122.000000002653));
#399=CARTESIAN_POINT('Ctrl Pts',(66.5,-7.49400541621981E-015,91.5000000029856));
#400=CARTESIAN_POINT('Ctrl Pts',(66.5,1.94520216597939,91.5000000029856));
#401=CARTESIAN_POINT('Ctrl Pts',(66.4125571018373,3.94787888606926,91.6890987915836));
#402=CARTESIAN_POINT('Ctrl Pts',(66.0574493196102,7.91371454405917,92.4752713497227));
#403=CARTESIAN_POINT('Ctrl Pts',(65.7900023797414,9.87694344452867,93.0720906005017));
#404=CARTESIAN_POINT('Ctrl Pts',(65.1167591768462,13.626668592065,94.6377662075358));
#405=CARTESIAN_POINT('Ctrl Pts',(64.7108513204152,15.4166498299436,95.6078699438289));
#406=CARTESIAN_POINT('Ctrl Pts',(63.8341064234982,18.7182859194541,97.8371484935104));
#407=CARTESIAN_POINT('Ctrl Pts',(63.3639769471683,20.2300110646128,99.0964974150839));
#408=CARTESIAN_POINT('Ctrl Pts',(62.4465421420095,22.9059749950908,101.772461345509));
#409=CARTESIAN_POINT('Ctrl Pts',(61.965489115825,24.1656600295929,103.285394756522));
#410=CARTESIAN_POINT('Ctrl Pts',(61.0496684326121,26.3939188188628,106.586479213914));
#411=CARTESIAN_POINT('Ctrl Pts',(60.6157906857665,27.3627672138713,108.374691697933));
#412=CARTESIAN_POINT('Ctrl Pts',(59.885094383755,28.9269893806281,112.12077039384));
#413=CARTESIAN_POINT('Ctrl Pts',(59.5885955603056,29.5236047966599,114.082166790266));
#414=CARTESIAN_POINT('Ctrl Pts',(59.1923330317655,30.3102568771893,118.047323655882));
#415=CARTESIAN_POINT('Ctrl Pts',(59.0931468107766,30.5,120.051200045383));
#416=CARTESIAN_POINT('Ctrl Pts',(59.0931468107766,30.5,122.000000002653));
#417=CARTESIAN_POINT('Origin',(0.,0.,30.5));
#418=CARTESIAN_POINT('',(-55.,-6.735335E-015,61.));
#419=CARTESIAN_POINT('Origin',(0.,0.,61.));
#420=CARTESIAN_POINT('',(-55.,-6.735335E-015,0.));
#421=CARTESIAN_POINT('Origin',(0.,0.,0.));
#422=CARTESIAN_POINT('Origin',(0.,0.,122.));
#423=CARTESIAN_POINT('',(91.9999999986307,-3.735049E-015,152.500000004131));
#424=CARTESIAN_POINT('Origin',(92.,0.,122.00000000413));
#425=CARTESIAN_POINT('Origin',(0.,0.,213.5));
#426=CARTESIAN_POINT('',(-55.,-6.735335E-015,244.));
#427=CARTESIAN_POINT('Origin',(0.,0.,244.));
#428=CARTESIAN_POINT('',(-55.,-6.735335E-015,183.));
#429=CARTESIAN_POINT('Origin',(0.,0.,183.));
#430=CARTESIAN_POINT('Origin',(76.5,0.,122.000000003426));
#431=CARTESIAN_POINT('',(91.9999999988776,-3.061516E-015,147.000000004122));
#432=CARTESIAN_POINT('Origin',(92.,0.,122.00000000413));
#433=CARTESIAN_POINT('',(60.9999999988776,-3.061516E-015,147.00000000273));
#434=CARTESIAN_POINT('Origin',(61.,0.,122.00000000273));
#435=CARTESIAN_POINT('Origin',(0.,0.,0.));
#436=CARTESIAN_POINT('Origin',(0.,0.,61.));
#437=CARTESIAN_POINT('Origin',(0.,0.,244.));
#438=CARTESIAN_POINT('Origin',(92.,0.,122.00000000413));
#439=CARTESIAN_POINT('Origin',(0.,0.,183.));
#440=CARTESIAN_POINT('Origin',(61.,0.,122.00000000273));
#441=UNCERTAINTY_MEASURE_WITH_UNIT(LENGTH_MEASURE(0.01),#443,
'DISTANCE_ACCURACY_VALUE',
'Maximum model space distance between geometric entities at asserted c
onnectivities');
#442=(
GEOMETRIC_REPRESENTATION_CONTEXT(3)
GLOBAL_UNCERTAINTY_ASSIGNED_CONTEXT((#441))
GLOBAL_UNIT_ASSIGNED_CONTEXT((#443,#446,#444))
REPRESENTATION_CONTEXT('','3D')
);
#443=(
LENGTH_UNIT()
NAMED_UNIT(*)
SI_UNIT(.MILLI.,.METRE.)
);
#444=(
NAMED_UNIT(*)
SI_UNIT($,.STERADIAN.)
SOLID_ANGLE_UNIT()
);
#445=DIMENSIONAL_EXPONENTS(0.,0.,0.,0.,0.,0.,0.);
#446=(
CONVERSION_BASED_UNIT('degree',#448)
NAMED_UNIT(#445)
PLANE_ANGLE_UNIT()
);
#447=(
NAMED_UNIT(*)
PLANE_ANGLE_UNIT()
SI_UNIT($,.RADIAN.)
);
#448=PLANE_ANGLE_MEASURE_WITH_UNIT(PLANE_ANGLE_MEASURE(0.01745329252),#447);
#449=SHAPE_DEFINITION_REPRESENTATION(#450,#451);
#450=PRODUCT_DEFINITION_SHAPE('',$,#453);
#451=SHAPE_REPRESENTATION('',(#182),#442);
#452=PRODUCT_DEFINITION_CONTEXT('3D Mechanical Parts',#456,'design');
#453=PRODUCT_DEFINITION('TRIV110050','TRIV110050',#454,#452);
#454=PRODUCT_DEFINITION_FORMATION('',$,#458);
#455=APPLICATION_PROTOCOL_DEFINITION('international standard',
'automotive_design',2009,#456);
#456=APPLICATION_CONTEXT(
'Core Data for Automotive Mechanical Design Process');
#457=PRODUCT_CONTEXT('3D Mechanical Parts',#456,'mechanical');
#458=PRODUCT('TRIV110050','TRIV110050',$,(#457));
#459=PRESENTATION_STYLE_ASSIGNMENT((#460));
#460=SURFACE_STYLE_USAGE(.BOTH.,#461);
#461=SURFACE_SIDE_STYLE($,(#462));
#462=SURFACE_STYLE_FILL_AREA(#463);
#463=FILL_AREA_STYLE($,(#464));
#464=FILL_AREA_STYLE_COLOUR($,#465);
#465=COLOUR_RGB('',0.509803921568627,0.509803921568627,0.588235294117647);
ENDSEC;
END-ISO-10303-21;
