ISO-10303-21;
HEADER;
/* Generated by software containing ST-Developer
 * from STEP Tools, Inc. (www.steptools.com) 
 */
/* OPTION: using custom renumber hook */

FILE_DESCRIPTION(
/* description */ ('STEP AP214'),
/* implementation_level */ '2;1');

FILE_NAME(
/* name */ 
'AGRU_30060007521_Elbow 45_long spigot_PVDF natural_75X3.6  SDR21  ISO
 S-10 (architecture400)',
/* time_stamp */ '2023-05-05T06:57:15+02:00',
/* author */ ('License CC BY-ND 4.0'),
/* organization */ ('CADENAS'),
/* preprocessor_version */ 'ST-DEVELOPER v19.3',
/* originating_system */ 'PARTsolutions',
/* authorisation */ '  ');

FILE_SCHEMA (('AUTOMOTIVE_DESIGN {1 0 10303 214 3 1 1}'));
ENDSEC;

DATA;
#10=PROPERTY_DEFINITION_REPRESENTATION(#14,#12);
#11=PROPERTY_DEFINITION_REPRESENTATION(#15,#13);
#12=REPRESENTATION('',(#16),#209);
#13=REPRESENTATION('',(#17),#209);
#14=PROPERTY_DEFINITION('pmi validation property','',#214);
#15=PROPERTY_DEFINITION('pmi validation property','',#214);
#16=VALUE_REPRESENTATION_ITEM('number of annotations',COUNT_MEASURE(0.));
#17=VALUE_REPRESENTATION_ITEM('number of views',COUNT_MEASURE(0.));
#18=SHAPE_REPRESENTATION_RELATIONSHIP('','',#123,#19);
#19=ADVANCED_BREP_SHAPE_REPRESENTATION('',(#121),#209);
#20=SPHERICAL_SURFACE('',#134,37.5);
#21=SPHERICAL_SURFACE('',#140,33.9);
#22=PLANE('',#133);
#23=PLANE('',#138);
#24=CIRCLE('',#127,33.9);
#25=CIRCLE('',#128,33.9);
#26=CIRCLE('',#130,37.5);
#27=CIRCLE('',#132,37.5);
#28=CIRCLE('',#135,37.5);
#29=CIRCLE('',#137,37.5);
#30=CIRCLE('',#139,33.9);
#31=CIRCLE('',#141,33.9);
#32=ORIENTED_EDGE('',*,*,#52,.T.);
#33=ORIENTED_EDGE('',*,*,#53,.T.);
#34=ORIENTED_EDGE('',*,*,#54,.F.);
#35=ORIENTED_EDGE('',*,*,#55,.F.);
#36=ORIENTED_EDGE('',*,*,#56,.F.);
#37=ORIENTED_EDGE('',*,*,#57,.T.);
#38=ORIENTED_EDGE('',*,*,#57,.F.);
#39=ORIENTED_EDGE('',*,*,#54,.T.);
#40=ORIENTED_EDGE('',*,*,#55,.T.);
#41=ORIENTED_EDGE('',*,*,#58,.F.);
#42=ORIENTED_EDGE('',*,*,#59,.F.);
#43=ORIENTED_EDGE('',*,*,#58,.T.);
#44=ORIENTED_EDGE('',*,*,#56,.T.);
#45=ORIENTED_EDGE('',*,*,#60,.F.);
#46=ORIENTED_EDGE('',*,*,#59,.T.);
#47=ORIENTED_EDGE('',*,*,#53,.F.);
#48=ORIENTED_EDGE('',*,*,#61,.T.);
#49=ORIENTED_EDGE('',*,*,#60,.T.);
#50=ORIENTED_EDGE('',*,*,#52,.F.);
#51=ORIENTED_EDGE('',*,*,#61,.F.);
#52=EDGE_CURVE('',#62,#63,#70,.T.);
#53=EDGE_CURVE('',#63,#62,#24,.T.);
#54=EDGE_CURVE('',#64,#64,#25,.T.);
#55=EDGE_CURVE('',#65,#66,#26,.T.);
#56=EDGE_CURVE('',#66,#65,#71,.T.);
#57=EDGE_CURVE('',#67,#67,#27,.T.);
#58=EDGE_CURVE('',#65,#66,#28,.T.);
#59=EDGE_CURVE('',#68,#68,#29,.T.);
#60=EDGE_CURVE('',#69,#69,#30,.T.);
#61=EDGE_CURVE('',#63,#62,#31,.T.);
#62=VERTEX_POINT('',#184);
#63=VERTEX_POINT('',#185);
#64=VERTEX_POINT('',#188);
#65=VERTEX_POINT('',#191);
#66=VERTEX_POINT('',#192);
#67=VERTEX_POINT('',#195);
#68=VERTEX_POINT('',#201);
#69=VERTEX_POINT('',#204);
#70=ELLIPSE('',#126,36.6930955899122,33.9);
#71=ELLIPSE('',#131,40.5897075109648,37.5);
#72=EDGE_LOOP('',(#32,#33));
#73=EDGE_LOOP('',(#34));
#74=EDGE_LOOP('',(#35,#36));
#75=EDGE_LOOP('',(#37));
#76=EDGE_LOOP('',(#38));
#77=EDGE_LOOP('',(#39));
#78=EDGE_LOOP('',(#40,#41));
#79=EDGE_LOOP('',(#42));
#80=EDGE_LOOP('',(#43,#44));
#81=EDGE_LOOP('',(#45));
#82=EDGE_LOOP('',(#46));
#83=EDGE_LOOP('',(#47,#48));
#84=EDGE_LOOP('',(#49));
#85=EDGE_LOOP('',(#50,#51));
#86=FACE_BOUND('',#72,.T.);
#87=FACE_BOUND('',#73,.T.);
#88=FACE_BOUND('',#74,.T.);
#89=FACE_BOUND('',#75,.T.);
#90=FACE_BOUND('',#76,.T.);
#91=FACE_BOUND('',#77,.T.);
#92=FACE_BOUND('',#78,.T.);
#93=FACE_BOUND('',#79,.T.);
#94=FACE_BOUND('',#80,.T.);
#95=FACE_BOUND('',#81,.T.);
#96=FACE_BOUND('',#82,.T.);
#97=FACE_BOUND('',#83,.T.);
#98=FACE_BOUND('',#84,.T.);
#99=FACE_BOUND('',#85,.T.);
#100=CYLINDRICAL_SURFACE('',#125,33.9);
#101=CYLINDRICAL_SURFACE('',#129,37.5);
#102=CYLINDRICAL_SURFACE('',#136,37.5);
#103=CYLINDRICAL_SURFACE('',#142,33.9);
#104=ADVANCED_FACE('',(#86,#87),#100,.F.);
#105=ADVANCED_FACE('',(#88,#89),#101,.T.);
#106=ADVANCED_FACE('',(#90,#91),#22,.F.);
#107=ADVANCED_FACE('',(#92),#20,.T.);
#108=ADVANCED_FACE('',(#93,#94),#102,.T.);
#109=ADVANCED_FACE('',(#95,#96),#23,.F.);
#110=ADVANCED_FACE('',(#97),#21,.F.);
#111=ADVANCED_FACE('',(#98,#99),#103,.F.);
#112=CLOSED_SHELL('',(#104,#105,#106,#107,#108,#109,#110,#111));
#113=STYLED_ITEM('',(#114),#121);
#114=PRESENTATION_STYLE_ASSIGNMENT((#115));
#115=SURFACE_STYLE_USAGE(.BOTH.,#116);
#116=SURFACE_SIDE_STYLE('',(#117));
#117=SURFACE_STYLE_FILL_AREA(#118);
#118=FILL_AREA_STYLE('',(#119));
#119=FILL_AREA_STYLE_COLOUR('',#120);
#120=COLOUR_RGB('',1.,1.,0.980392158031464);
#121=MANIFOLD_SOLID_BREP(
'AGRU_30060007521_Elbow 45_long spigot_PVDF natural_75X3.6  SDR21  ISO
 S-10 (architecture400)',#112);
#122=SHAPE_DEFINITION_REPRESENTATION(#214,#123);
#123=SHAPE_REPRESENTATION(
'AGRU_30060007521_Elbow 45_long spigot_PVDF natural_75X3.6  SDR21  ISO
 S-10 (architecture400)',(#124),#209);
#124=AXIS2_PLACEMENT_3D('',#181,#143,#144);
#125=AXIS2_PLACEMENT_3D('',#182,#145,#146);
#126=AXIS2_PLACEMENT_3D('',#183,#147,#148);
#127=AXIS2_PLACEMENT_3D('',#186,#149,#150);
#128=AXIS2_PLACEMENT_3D('',#187,#151,#152);
#129=AXIS2_PLACEMENT_3D('',#189,#153,#154);
#130=AXIS2_PLACEMENT_3D('',#190,#155,#156);
#131=AXIS2_PLACEMENT_3D('',#193,#157,#158);
#132=AXIS2_PLACEMENT_3D('',#194,#159,#160);
#133=AXIS2_PLACEMENT_3D('',#196,#161,#162);
#134=AXIS2_PLACEMENT_3D('',#197,#163,#164);
#135=AXIS2_PLACEMENT_3D('',#198,#165,#166);
#136=AXIS2_PLACEMENT_3D('',#199,#167,#168);
#137=AXIS2_PLACEMENT_3D('',#200,#169,#170);
#138=AXIS2_PLACEMENT_3D('',#202,#171,#172);
#139=AXIS2_PLACEMENT_3D('',#203,#173,#174);
#140=AXIS2_PLACEMENT_3D('',#205,#175,#176);
#141=AXIS2_PLACEMENT_3D('',#206,#177,#178);
#142=AXIS2_PLACEMENT_3D('',#207,#179,#180);
#143=DIRECTION('',(0.,0.,1.));
#144=DIRECTION('',(1.,0.,0.));
#145=DIRECTION('',(1.,0.,0.));
#146=DIRECTION('',(0.,0.,-1.));
#147=DIRECTION('',(0.923879532511287,0.,-0.38268343236509));
#148=DIRECTION('',(0.38268343236509,0.,0.923879532511287));
#149=DIRECTION('',(1.,0.,0.));
#150=DIRECTION('',(0.,0.,-1.));
#151=DIRECTION('',(1.,0.,0.));
#152=DIRECTION('',(0.,0.,-1.));
#153=DIRECTION('',(1.,0.,0.));
#154=DIRECTION('',(0.,0.,-1.));
#155=DIRECTION('',(1.,0.,0.));
#156=DIRECTION('',(0.,0.,-1.));
#157=DIRECTION('',(0.923879532511287,0.,-0.38268343236509));
#158=DIRECTION('',(0.38268343236509,0.,0.923879532511287));
#159=DIRECTION('',(1.,0.,0.));
#160=DIRECTION('',(0.,0.,-1.));
#161=DIRECTION('',(1.,0.,0.));
#162=DIRECTION('',(0.,0.,-1.));
#163=DIRECTION('',(1.,0.,0.));
#164=DIRECTION('',(0.,0.,1.));
#165=DIRECTION('',(0.707106781186547,0.,-0.707106781186548));
#166=DIRECTION('',(-0.707106781186548,0.,-0.707106781186547));
#167=DIRECTION('',(0.707106781186547,0.,-0.707106781186548));
#168=DIRECTION('',(-0.707106781186548,0.,-0.707106781186547));
#169=DIRECTION('',(0.707106781186547,0.,-0.707106781186548));
#170=DIRECTION('',(-0.707106781186548,0.,-0.707106781186547));
#171=DIRECTION('',(-0.707106781186547,0.,0.707106781186548));
#172=DIRECTION('',(0.707106781186548,0.,0.707106781186547));
#173=DIRECTION('',(0.707106781186547,0.,-0.707106781186548));
#174=DIRECTION('',(-0.707106781186548,0.,-0.707106781186547));
#175=DIRECTION('',(1.,0.,0.));
#176=DIRECTION('',(0.,0.,-1.));
#177=DIRECTION('',(0.707106781186547,0.,-0.707106781186548));
#178=DIRECTION('',(-0.707106781186548,0.,-0.707106781186547));
#179=DIRECTION('',(0.707106781186547,0.,-0.707106781186548));
#180=DIRECTION('',(-0.707106781186548,0.,-0.707106781186547));
#181=CARTESIAN_POINT('',(0.,0.,0.));
#182=CARTESIAN_POINT('',(83.9,0.,0.));
#183=CARTESIAN_POINT('',(50.,0.,3.46944695195361E-15));
#184=CARTESIAN_POINT('',(50.,-33.9,1.73472347597681E-15));
#185=CARTESIAN_POINT('',(50.,33.9,7.37257477290143E-15));
#186=CARTESIAN_POINT('',(50.,0.,0.));
#187=CARTESIAN_POINT('',(0.,0.,0.));
#188=CARTESIAN_POINT('',(0.,0.,-33.9));
#189=CARTESIAN_POINT('',(87.5,0.,0.));
#190=CARTESIAN_POINT('',(50.,0.,0.));
#191=CARTESIAN_POINT('',(50.,37.5,-1.01107093613172E-14));
#192=CARTESIAN_POINT('',(50.,-37.5,-5.99712429228292E-15));
#193=CARTESIAN_POINT('',(50.,0.,0.));
#194=CARTESIAN_POINT('',(0.,0.,0.));
#195=CARTESIAN_POINT('',(0.,0.,-37.5));
#196=CARTESIAN_POINT('',(0.,0.,0.));
#197=CARTESIAN_POINT('',(50.,0.,-1.38777878078145E-14));
#198=CARTESIAN_POINT('',(50.,0.,-1.04083408558608E-14));
#199=CARTESIAN_POINT('',(85.3553390593274,0.,-35.3553390593274));
#200=CARTESIAN_POINT('',(85.3553390593274,0.,-35.3553390593274));
#201=CARTESIAN_POINT('',(58.8388347648318,0.,-61.8718433538229));
#202=CARTESIAN_POINT('',(111.871843353823,0.,-8.83883476483184));
#203=CARTESIAN_POINT('',(85.3553390593274,0.,-35.3553390593274));
#204=CARTESIAN_POINT('',(61.3844191771034,0.,-59.3262589415513));
#205=CARTESIAN_POINT('',(50.,0.,0.));
#206=CARTESIAN_POINT('',(50.,0.,3.46944695195361E-15));
#207=CARTESIAN_POINT('',(85.3553390593274,0.,-35.3553390593274));
#208=MECHANICAL_DESIGN_GEOMETRIC_PRESENTATION_REPRESENTATION('',(#113),
#209);
#209=(
GEOMETRIC_REPRESENTATION_CONTEXT(3)
GLOBAL_UNCERTAINTY_ASSIGNED_CONTEXT((#210))
GLOBAL_UNIT_ASSIGNED_CONTEXT((#213,#212,#211))
REPRESENTATION_CONTEXT(
'AGRU_30060007521_Elbow 45_long spigot_PVDF natural_75X3.6  SDR21  ISO
 S-10 (architecture400)','TOP_LEVEL_ASSEMBLY_PART')
);
#210=UNCERTAINTY_MEASURE_WITH_UNIT(LENGTH_MEASURE(0.005),#213,
'DISTANCE_ACCURACY_VALUE','Maximum Tolerance applied to model');
#211=(
NAMED_UNIT(*)
SI_UNIT($,.STERADIAN.)
SOLID_ANGLE_UNIT()
);
#212=(
NAMED_UNIT(*)
PLANE_ANGLE_UNIT()
SI_UNIT($,.RADIAN.)
);
#213=(
LENGTH_UNIT()
NAMED_UNIT(*)
SI_UNIT(.MILLI.,.METRE.)
);
#214=PRODUCT_DEFINITION_SHAPE('','',#215);
#215=PRODUCT_DEFINITION('','',#217,#216);
#216=PRODUCT_DEFINITION_CONTEXT('',#223,'design');
#217=PRODUCT_DEFINITION_FORMATION_WITH_SPECIFIED_SOURCE('','',#219,
 .NOT_KNOWN.);
#218=PRODUCT_RELATED_PRODUCT_CATEGORY('','',(#219));
#219=PRODUCT(
'AGRU_30060007521_Elbow 45_long spigot_PVDF natural_75X3.6  SDR21  ISO
 S-10 (architecture400)',
'AGRU_30060007521_Elbow 45_long spigot_PVDF natural_75X3.6  SDR21  ISO
 S-10 (architecture400)',
'AGRU_30060007521_Elbow 45_long spigot_PVDF natural_75X3.6  SDR21  ISO
 S-10 (architecture400)',(#221));
#220=PRODUCT_CATEGORY('','');
#221=PRODUCT_CONTEXT('',#223,'mechanical');
#222=APPLICATION_PROTOCOL_DEFINITION('international standard',
'automotive_design',2010,#223);
#223=APPLICATION_CONTEXT(
'core data for automotive mechanical design processes');
ENDSEC;
END-ISO-10303-21;
