ISO-10303-21;
HEADER;
/* Generated by software containing ST-Developer
 * from STEP Tools, Inc. (www.steptools.com) 
 */

FILE_DESCRIPTION(
/* description */ (''),
/* implementation_level */ '2;1');

FILE_NAME(
/* name */ 'C:\\Users\\Gabriele\\Desktop\\catalogo\\EL50\\EL502000.stp',

/* time_stamp */ '2016-10-17T17:09:00+02:00',
/* author */ ('Gabriele'),
/* organization */ (''),
/* preprocessor_version */ 'ST-DEVELOPER v16.5',
/* originating_system */ 'Autodesk Inventor 2017',
/* authorisation */ '');

FILE_SCHEMA (('AUTOMOTIVE_DESIGN { 1 0 10303 214 3 1 1 }'));
ENDSEC;

DATA;
#10=MECHANICAL_DESIGN_GEOMETRIC_PRESENTATION_REPRESENTATION('',(#13),#399);
#11=SHAPE_REPRESENTATION_RELATIONSHIP('SRR','None',#408,#12);
#12=ADVANCED_BREP_SHAPE_REPRESENTATION('',(#14),#398);
#13=STYLED_ITEM('',(#417),#14);
#14=MANIFOLD_SOLID_BREP('Solido1',#189);
#15=PLANE('',#202);
#16=PLANE('',#212);
#17=PLANE('',#220);
#18=PLANE('',#221);
#19=TOROIDAL_SURFACE('',#199,100.5,0.5);
#20=TOROIDAL_SURFACE('',#206,115.5,0.5);
#21=TOROIDAL_SURFACE('',#209,100.5,0.5);
#22=TOROIDAL_SURFACE('',#216,115.5,0.5);
#23=TOROIDAL_SURFACE('',#217,102.,96.);
#24=FACE_BOUND('',#74,.T.);
#25=FACE_BOUND('',#76,.T.);
#26=FACE_BOUND('',#78,.T.);
#27=FACE_BOUND('',#80,.T.);
#28=FACE_BOUND('',#82,.T.);
#29=FACE_BOUND('',#84,.T.);
#30=FACE_BOUND('',#86,.T.);
#31=FACE_BOUND('',#88,.T.);
#32=FACE_BOUND('',#90,.T.);
#33=FACE_BOUND('',#92,.T.);
#34=FACE_BOUND('',#94,.T.);
#35=FACE_BOUND('',#96,.T.);
#36=FACE_BOUND('',#98,.T.);
#37=CYLINDRICAL_SURFACE('',#197,116.);
#38=CYLINDRICAL_SURFACE('',#204,100.);
#39=CYLINDRICAL_SURFACE('',#208,116.);
#40=CYLINDRICAL_SURFACE('',#214,100.);
#41=CIRCLE('',#195,116.);
#42=CIRCLE('',#196,116.);
#43=CIRCLE('',#198,116.);
#44=CIRCLE('',#200,100.);
#45=CIRCLE('',#201,100.5);
#46=CIRCLE('',#203,115.5);
#47=CIRCLE('',#205,100.);
#48=CIRCLE('',#207,116.);
#49=CIRCLE('',#210,100.);
#50=CIRCLE('',#211,100.5);
#51=CIRCLE('',#213,115.5);
#52=CIRCLE('',#215,100.);
#53=CIRCLE('',#218,96.);
#54=CIRCLE('',#219,96.);
#55=(
BOUNDED_SURFACE()
B_SPLINE_SURFACE(2,2,((#330,#331,#332),(#333,#334,#335),(#336,#337,#338),
(#339,#340,#341),(#342,#343,#344),(#345,#346,#347),(#348,#349,#350),(#351,
#352,#353),(#354,#355,#356)),.UNSPECIFIED.,.F.,.F.,.F.)
B_SPLINE_SURFACE_WITH_KNOTS((3,2,2,2,3),(3,3),(-2.63778060389763,-1.31889030194882,
-1.11022302462516E-15,1.31889030194881,2.63778060389763),(0.,1.57079632679713),
 .UNSPECIFIED.)
GEOMETRIC_REPRESENTATION_ITEM()
RATIONAL_B_SPLINE_SURFACE(((1.,0.707106781185758,1.),(0.790332297165312,
0.558849326715709,0.790332297165312),(1.,0.707106781185758,1.),(0.790332297165311,
0.558849326715709,0.790332297165311),(1.,0.707106781185758,1.),(0.790332297165312,
0.55884932671571,0.790332297165312),(1.,0.707106781185758,1.),(0.790332297165313,
0.55884932671571,0.790332297165313),(1.,0.707106781185758,1.)))
REPRESENTATION_ITEM('')
SURFACE()
);
#56=FACE_OUTER_BOUND('',#71,.T.);
#57=FACE_OUTER_BOUND('',#72,.T.);
#58=FACE_OUTER_BOUND('',#73,.T.);
#59=FACE_OUTER_BOUND('',#75,.T.);
#60=FACE_OUTER_BOUND('',#77,.T.);
#61=FACE_OUTER_BOUND('',#79,.T.);
#62=FACE_OUTER_BOUND('',#81,.T.);
#63=FACE_OUTER_BOUND('',#83,.T.);
#64=FACE_OUTER_BOUND('',#85,.T.);
#65=FACE_OUTER_BOUND('',#87,.T.);
#66=FACE_OUTER_BOUND('',#89,.T.);
#67=FACE_OUTER_BOUND('',#91,.T.);
#68=FACE_OUTER_BOUND('',#93,.T.);
#69=FACE_OUTER_BOUND('',#95,.T.);
#70=FACE_OUTER_BOUND('',#97,.T.);
#71=EDGE_LOOP('',(#137,#138,#139,#140));
#72=EDGE_LOOP('',(#141,#142,#143,#144));
#73=EDGE_LOOP('',(#145));
#74=EDGE_LOOP('',(#146,#147));
#75=EDGE_LOOP('',(#148));
#76=EDGE_LOOP('',(#149));
#77=EDGE_LOOP('',(#150));
#78=EDGE_LOOP('',(#151));
#79=EDGE_LOOP('',(#152));
#80=EDGE_LOOP('',(#153));
#81=EDGE_LOOP('',(#154));
#82=EDGE_LOOP('',(#155));
#83=EDGE_LOOP('',(#156,#157));
#84=EDGE_LOOP('',(#158));
#85=EDGE_LOOP('',(#159));
#86=EDGE_LOOP('',(#160));
#87=EDGE_LOOP('',(#161));
#88=EDGE_LOOP('',(#162));
#89=EDGE_LOOP('',(#163));
#90=EDGE_LOOP('',(#164));
#91=EDGE_LOOP('',(#165));
#92=EDGE_LOOP('',(#166));
#93=EDGE_LOOP('',(#167));
#94=EDGE_LOOP('',(#168));
#95=EDGE_LOOP('',(#169));
#96=EDGE_LOOP('',(#170));
#97=EDGE_LOOP('',(#171));
#98=EDGE_LOOP('',(#172));
#99=ELLIPSE('',#191,0.533236944229155,0.50005031611892);
#100=ELLIPSE('',#192,164.402706790369,116.);
#101=ELLIPSE('',#193,0.533236944253366,0.500050316128634);
#102=ELLIPSE('',#194,164.402706790369,116.);
#103=VERTEX_POINT('',#322);
#104=VERTEX_POINT('',#323);
#105=VERTEX_POINT('',#325);
#106=VERTEX_POINT('',#327);
#107=VERTEX_POINT('',#360);
#108=VERTEX_POINT('',#363);
#109=VERTEX_POINT('',#365);
#110=VERTEX_POINT('',#368);
#111=VERTEX_POINT('',#371);
#112=VERTEX_POINT('',#374);
#113=VERTEX_POINT('',#378);
#114=VERTEX_POINT('',#380);
#115=VERTEX_POINT('',#383);
#116=VERTEX_POINT('',#386);
#117=VERTEX_POINT('',#390);
#118=VERTEX_POINT('',#392);
#119=EDGE_CURVE('',#103,#104,#99,.T.);
#120=EDGE_CURVE('',#103,#105,#100,.T.);
#121=EDGE_CURVE('',#106,#105,#101,.T.);
#122=EDGE_CURVE('',#106,#104,#102,.T.);
#123=EDGE_CURVE('',#105,#103,#41,.T.);
#124=EDGE_CURVE('',#106,#104,#42,.T.);
#125=EDGE_CURVE('',#107,#107,#43,.T.);
#126=EDGE_CURVE('',#108,#108,#44,.T.);
#127=EDGE_CURVE('',#109,#109,#45,.T.);
#128=EDGE_CURVE('',#110,#110,#46,.T.);
#129=EDGE_CURVE('',#111,#111,#47,.T.);
#130=EDGE_CURVE('',#112,#112,#48,.T.);
#131=EDGE_CURVE('',#113,#113,#49,.T.);
#132=EDGE_CURVE('',#114,#114,#50,.T.);
#133=EDGE_CURVE('',#115,#115,#51,.T.);
#134=EDGE_CURVE('',#116,#116,#52,.T.);
#135=EDGE_CURVE('',#117,#117,#53,.T.);
#136=EDGE_CURVE('',#118,#118,#54,.T.);
#137=ORIENTED_EDGE('',*,*,#119,.F.);
#138=ORIENTED_EDGE('',*,*,#120,.T.);
#139=ORIENTED_EDGE('',*,*,#121,.F.);
#140=ORIENTED_EDGE('',*,*,#122,.T.);
#141=ORIENTED_EDGE('',*,*,#121,.T.);
#142=ORIENTED_EDGE('',*,*,#123,.T.);
#143=ORIENTED_EDGE('',*,*,#119,.T.);
#144=ORIENTED_EDGE('',*,*,#124,.F.);
#145=ORIENTED_EDGE('',*,*,#125,.F.);
#146=ORIENTED_EDGE('',*,*,#120,.F.);
#147=ORIENTED_EDGE('',*,*,#123,.F.);
#148=ORIENTED_EDGE('',*,*,#126,.T.);
#149=ORIENTED_EDGE('',*,*,#127,.T.);
#150=ORIENTED_EDGE('',*,*,#128,.F.);
#151=ORIENTED_EDGE('',*,*,#127,.F.);
#152=ORIENTED_EDGE('',*,*,#129,.F.);
#153=ORIENTED_EDGE('',*,*,#126,.F.);
#154=ORIENTED_EDGE('',*,*,#130,.T.);
#155=ORIENTED_EDGE('',*,*,#128,.T.);
#156=ORIENTED_EDGE('',*,*,#122,.F.);
#157=ORIENTED_EDGE('',*,*,#124,.T.);
#158=ORIENTED_EDGE('',*,*,#130,.F.);
#159=ORIENTED_EDGE('',*,*,#131,.T.);
#160=ORIENTED_EDGE('',*,*,#132,.T.);
#161=ORIENTED_EDGE('',*,*,#133,.F.);
#162=ORIENTED_EDGE('',*,*,#132,.F.);
#163=ORIENTED_EDGE('',*,*,#134,.T.);
#164=ORIENTED_EDGE('',*,*,#131,.F.);
#165=ORIENTED_EDGE('',*,*,#133,.T.);
#166=ORIENTED_EDGE('',*,*,#125,.T.);
#167=ORIENTED_EDGE('',*,*,#135,.F.);
#168=ORIENTED_EDGE('',*,*,#136,.F.);
#169=ORIENTED_EDGE('',*,*,#129,.T.);
#170=ORIENTED_EDGE('',*,*,#135,.T.);
#171=ORIENTED_EDGE('',*,*,#134,.F.);
#172=ORIENTED_EDGE('',*,*,#136,.T.);
#173=B_SPLINE_SURFACE_WITH_KNOTS('',3,3,((#287,#288,#289,#290,#291,#292,
#293),(#294,#295,#296,#297,#298,#299,#300),(#301,#302,#303,#304,#305,#306,
#307),(#308,#309,#310,#311,#312,#313,#314),(#315,#316,#317,#318,#319,#320,
#321)),.UNSPECIFIED.,.F.,.F.,.F.,(4,1,4),(4,1,1,1,4),(0.,0.5,1.),(-0.504559357214278,
-0.360399540867342,-0.0720799081734701,0.216239724520402,0.504559357214274),
 .UNSPECIFIED.);
#174=ADVANCED_FACE('',(#56),#173,.T.);
#175=ADVANCED_FACE('',(#57),#55,.F.);
#176=ADVANCED_FACE('',(#58,#24),#37,.T.);
#177=ADVANCED_FACE('',(#59,#25),#19,.T.);
#178=ADVANCED_FACE('',(#60,#26),#15,.T.);
#179=ADVANCED_FACE('',(#61,#27),#38,.F.);
#180=ADVANCED_FACE('',(#62,#28),#20,.T.);
#181=ADVANCED_FACE('',(#63,#29),#39,.T.);
#182=ADVANCED_FACE('',(#64,#30),#21,.T.);
#183=ADVANCED_FACE('',(#65,#31),#16,.F.);
#184=ADVANCED_FACE('',(#66,#32),#40,.F.);
#185=ADVANCED_FACE('',(#67,#33),#22,.T.);
#186=ADVANCED_FACE('',(#68,#34),#23,.F.);
#187=ADVANCED_FACE('',(#69,#35),#17,.T.);
#188=ADVANCED_FACE('',(#70,#36),#18,.F.);
#189=CLOSED_SHELL('',(#174,#175,#176,#177,#178,#179,#180,#181,#182,#183,
#184,#185,#186,#187,#188));
#190=AXIS2_PLACEMENT_3D('placement',#286,#222,#223);
#191=AXIS2_PLACEMENT_3D('',#324,#224,#225);
#192=AXIS2_PLACEMENT_3D('',#326,#226,#227);
#193=AXIS2_PLACEMENT_3D('',#328,#228,#229);
#194=AXIS2_PLACEMENT_3D('',#329,#230,#231);
#195=AXIS2_PLACEMENT_3D('',#357,#232,#233);
#196=AXIS2_PLACEMENT_3D('',#358,#234,#235);
#197=AXIS2_PLACEMENT_3D('',#359,#236,#237);
#198=AXIS2_PLACEMENT_3D('',#361,#238,#239);
#199=AXIS2_PLACEMENT_3D('',#362,#240,#241);
#200=AXIS2_PLACEMENT_3D('',#364,#242,#243);
#201=AXIS2_PLACEMENT_3D('',#366,#244,#245);
#202=AXIS2_PLACEMENT_3D('',#367,#246,#247);
#203=AXIS2_PLACEMENT_3D('',#369,#248,#249);
#204=AXIS2_PLACEMENT_3D('',#370,#250,#251);
#205=AXIS2_PLACEMENT_3D('',#372,#252,#253);
#206=AXIS2_PLACEMENT_3D('',#373,#254,#255);
#207=AXIS2_PLACEMENT_3D('',#375,#256,#257);
#208=AXIS2_PLACEMENT_3D('',#376,#258,#259);
#209=AXIS2_PLACEMENT_3D('',#377,#260,#261);
#210=AXIS2_PLACEMENT_3D('',#379,#262,#263);
#211=AXIS2_PLACEMENT_3D('',#381,#264,#265);
#212=AXIS2_PLACEMENT_3D('',#382,#266,#267);
#213=AXIS2_PLACEMENT_3D('',#384,#268,#269);
#214=AXIS2_PLACEMENT_3D('',#385,#270,#271);
#215=AXIS2_PLACEMENT_3D('',#387,#272,#273);
#216=AXIS2_PLACEMENT_3D('',#388,#274,#275);
#217=AXIS2_PLACEMENT_3D('',#389,#276,#277);
#218=AXIS2_PLACEMENT_3D('',#391,#278,#279);
#219=AXIS2_PLACEMENT_3D('',#393,#280,#281);
#220=AXIS2_PLACEMENT_3D('',#394,#282,#283);
#221=AXIS2_PLACEMENT_3D('',#395,#284,#285);
#222=DIRECTION('axis',(0.,0.,1.));
#223=DIRECTION('refdir',(1.,0.,0.));
#224=DIRECTION('center_axis',(0.21472803942798,-0.214728039428018,-0.952776856439542));
#225=DIRECTION('ref_axis',(-0.673714961518668,0.673714990773335,-0.303671305580861));
#226=DIRECTION('center_axis',(0.708625802302331,0.705584489846098,0.));
#227=DIRECTION('ref_axis',(0.705584489846098,-0.708625802302331,0.));
#228=DIRECTION('center_axis',(0.21472803942498,-0.214728039424952,0.952776856440909));
#229=DIRECTION('ref_axis',(0.673714961527316,-0.673714990766621,-0.303671305576571));
#230=DIRECTION('center_axis',(-0.705584489846098,-0.708625802302331,0.));
#231=DIRECTION('ref_axis',(0.708625802302331,-0.705584489846098,0.));
#232=DIRECTION('center_axis',(0.,1.,0.));
#233=DIRECTION('ref_axis',(-1.,0.,0.));
#234=DIRECTION('center_axis',(1.,6.12323399573677E-17,0.));
#235=DIRECTION('ref_axis',(-6.12323399573677E-17,1.,0.));
#236=DIRECTION('center_axis',(0.,1.,0.));
#237=DIRECTION('ref_axis',(-1.,0.,0.));
#238=DIRECTION('center_axis',(0.,-1.,0.));
#239=DIRECTION('ref_axis',(-1.,0.,0.));
#240=DIRECTION('center_axis',(-1.,-6.12323399573677E-17,0.));
#241=DIRECTION('ref_axis',(0.,0.,1.));
#242=DIRECTION('center_axis',(-1.,-6.12323399573677E-17,0.));
#243=DIRECTION('ref_axis',(-6.10622663543836E-17,1.,0.));
#244=DIRECTION('center_axis',(1.,6.12323399573677E-17,0.));
#245=DIRECTION('ref_axis',(-6.12323399573677E-17,1.,0.));
#246=DIRECTION('center_axis',(1.,6.12323399573677E-17,0.));
#247=DIRECTION('ref_axis',(0.,0.,1.));
#248=DIRECTION('center_axis',(-1.,-6.12323399573677E-17,0.));
#249=DIRECTION('ref_axis',(-6.12323399573677E-17,1.,0.));
#250=DIRECTION('center_axis',(1.,2.22044604925031E-16,0.));
#251=DIRECTION('ref_axis',(-2.22044604925031E-16,1.,0.));
#252=DIRECTION('center_axis',(1.,2.22044604925031E-16,0.));
#253=DIRECTION('ref_axis',(-2.22044604925031E-16,1.,0.));
#254=DIRECTION('center_axis',(1.,6.12323399573677E-17,0.));
#255=DIRECTION('ref_axis',(0.,0.,-1.));
#256=DIRECTION('center_axis',(1.,6.12323399573677E-17,0.));
#257=DIRECTION('ref_axis',(-6.1014411913667E-17,1.,0.));
#258=DIRECTION('center_axis',(1.,0.,0.));
#259=DIRECTION('ref_axis',(0.,1.,0.));
#260=DIRECTION('center_axis',(0.,1.,0.));
#261=DIRECTION('ref_axis',(0.,0.,1.));
#262=DIRECTION('center_axis',(0.,1.,0.));
#263=DIRECTION('ref_axis',(-1.,0.,0.));
#264=DIRECTION('center_axis',(0.,-1.,0.));
#265=DIRECTION('ref_axis',(-1.,0.,0.));
#266=DIRECTION('center_axis',(0.,1.,0.));
#267=DIRECTION('ref_axis',(0.,0.,1.));
#268=DIRECTION('center_axis',(0.,1.,0.));
#269=DIRECTION('ref_axis',(-1.,0.,0.));
#270=DIRECTION('center_axis',(0.,1.,0.));
#271=DIRECTION('ref_axis',(-1.,0.,0.));
#272=DIRECTION('center_axis',(0.,1.,0.));
#273=DIRECTION('ref_axis',(-1.,0.,0.));
#274=DIRECTION('center_axis',(0.,1.,0.));
#275=DIRECTION('ref_axis',(0.,0.,1.));
#276=DIRECTION('center_axis',(0.,0.,-1.));
#277=DIRECTION('ref_axis',(-1.,0.,0.));
#278=DIRECTION('center_axis',(-1.,-2.22044604925031E-16,0.));
#279=DIRECTION('ref_axis',(-2.22044604925031E-16,1.,0.));
#280=DIRECTION('center_axis',(0.,1.,0.));
#281=DIRECTION('ref_axis',(-1.,0.,0.));
#282=DIRECTION('center_axis',(1.,2.22044604925031E-16,0.));
#283=DIRECTION('ref_axis',(0.,0.,1.));
#284=DIRECTION('center_axis',(0.,1.,0.));
#285=DIRECTION('ref_axis',(0.,0.,1.));
#286=CARTESIAN_POINT('',(0.,0.,0.));
#287=CARTESIAN_POINT('Ctrl Pts',(101.544958782704,106.017347429439,-56.0769234696311));
#288=CARTESIAN_POINT('Ctrl Pts',(104.239638445599,103.311052767998,-51.1973559332738));
#289=CARTESIAN_POINT('Ctrl Pts',(111.270830541109,96.2495538100073,-35.9764759508885));
#290=CARTESIAN_POINT('Ctrl Pts',(117.314607732291,90.1797258550695,-8.47119057485492));
#291=CARTESIAN_POINT('Ctrl Pts',(114.878726551751,92.6261065234568,25.2360616917689));
#292=CARTESIAN_POINT('Ctrl Pts',(106.934318108493,100.604758106556,46.317788396916));
#293=CARTESIAN_POINT('Ctrl Pts',(101.544958782705,106.017347429439,56.0769234696306));
#294=CARTESIAN_POINT('Ctrl Pts',(101.568364486448,106.117501665813,-56.0345400599344));
#295=CARTESIAN_POINT('Ctrl Pts',(104.260017121546,103.416012781837,-51.1554939493461));
#296=CARTESIAN_POINT('Ctrl Pts',(111.281484985846,96.3682973378335,-35.9389871977142));
#297=CARTESIAN_POINT('Ctrl Pts',(117.31097981853,90.3142896656639,-8.46019372786534));
#298=CARTESIAN_POINT('Ctrl Pts',(114.881668991092,92.7537625944638,25.2058151234412));
#299=CARTESIAN_POINT('Ctrl Pts',(106.951669756644,100.71452389786,46.2764478387572));
#300=CARTESIAN_POINT('Ctrl Pts',(101.568364486448,106.117501665813,56.034540059934));
#301=CARTESIAN_POINT('Ctrl Pts',(101.682660342027,106.317339657973,-55.9873004933031));
#302=CARTESIAN_POINT('Ctrl Pts',(104.374696472364,103.625303527636,-51.1085571699904));
#303=CARTESIAN_POINT('Ctrl Pts',(111.395160907653,96.6048390923472,-35.8962349650678));
#304=CARTESIAN_POINT('Ctrl Pts',(117.418342434412,90.5816575655876,-8.44740230304239));
#305=CARTESIAN_POINT('Ctrl Pts',(114.992215136937,93.0077848630632,25.1709261969412));
#306=CARTESIAN_POINT('Ctrl Pts',(107.066732602701,100.9332673973,46.2298138466773));
#307=CARTESIAN_POINT('Ctrl Pts',(101.682660342027,106.317339657973,55.9873004933026));
#308=CARTESIAN_POINT('Ctrl Pts',(101.882498334187,106.431635513552,-56.0345400599344));
#309=CARTESIAN_POINT('Ctrl Pts',(104.583987218163,103.739982878454,-51.155493949346));
#310=CARTESIAN_POINT('Ctrl Pts',(111.631702662167,96.7185150141544,-35.9389871977142));
#311=CARTESIAN_POINT('Ctrl Pts',(117.685710334336,90.6890201814703,-8.46019372786533));
#312=CARTESIAN_POINT('Ctrl Pts',(115.246237405536,93.1183310089075,25.2058151234412));
#313=CARTESIAN_POINT('Ctrl Pts',(107.28547610214,101.048330243356,46.2764478387573));
#314=CARTESIAN_POINT('Ctrl Pts',(101.882498334187,106.431635513552,56.034540059934));
#315=CARTESIAN_POINT('Ctrl Pts',(101.982652570561,106.455041217296,-56.076923469631));
#316=CARTESIAN_POINT('Ctrl Pts',(104.688947232002,103.760361554401,-51.1973559332737));
#317=CARTESIAN_POINT('Ctrl Pts',(111.750446189993,96.7291694588914,-35.9764759508885));
#318=CARTESIAN_POINT('Ctrl Pts',(117.820274144931,90.6853922677087,-8.4711905748549));
#319=CARTESIAN_POINT('Ctrl Pts',(115.373893476543,93.1212734482488,25.2360616917689));
#320=CARTESIAN_POINT('Ctrl Pts',(107.395241893444,101.065681891507,46.317788396916));
#321=CARTESIAN_POINT('Ctrl Pts',(101.982652570561,106.455041217295,56.0769234696306));
#322=CARTESIAN_POINT('',(101.562231759657,106.,56.0456339066461));
#323=CARTESIAN_POINT('',(102.,106.437768240343,56.0456339066461));
#324=CARTESIAN_POINT('Origin',(102.063257318432,105.936742680091,56.1728067650165));
#325=CARTESIAN_POINT('',(101.562231759657,106.,-56.0456339066461));
#326=CARTESIAN_POINT('Origin',(0.,208.,0.));
#327=CARTESIAN_POINT('',(102.,106.437768240343,-56.0456339066461));
#328=CARTESIAN_POINT('Origin',(102.063257318449,105.936742680075,-56.172806765022));
#329=CARTESIAN_POINT('Origin',(0.,208.,0.));
#330=CARTESIAN_POINT('Ctrl Pts',(101.586837130699,106.,56.0010225065652));
#331=CARTESIAN_POINT('Ctrl Pts',(101.586837130699,106.413162869301,56.0010225065652));
#332=CARTESIAN_POINT('Ctrl Pts',(102.,106.413162869301,56.0010225065652));
#333=CARTESIAN_POINT('Ctrl Pts',(58.1739350666344,106.,134.752788348628));
#334=CARTESIAN_POINT('Ctrl Pts',(58.1739350665855,149.826064933415,134.752788348628));
#335=CARTESIAN_POINT('Ctrl Pts',(102.,149.826064933366,134.752788348628));
#336=CARTESIAN_POINT('Ctrl Pts',(-28.9130324666828,106.,112.338936053269));
#337=CARTESIAN_POINT('Ctrl Pts',(-28.913032466829,236.913032466829,112.338936053269));
#338=CARTESIAN_POINT('Ctrl Pts',(102.,236.913032466683,112.338936053269));
#339=CARTESIAN_POINT('Ctrl Pts',(-116.,106.,89.9250837579105));
#340=CARTESIAN_POINT('Ctrl Pts',(-116.000000000243,324.000000000243,89.9250837579105));
#341=CARTESIAN_POINT('Ctrl Pts',(102.,324.,89.9250837579105));
#342=CARTESIAN_POINT('Ctrl Pts',(-116.,106.,1.28785870856518E-13));
#343=CARTESIAN_POINT('Ctrl Pts',(-116.000000000244,324.000000000244,1.28785870856518E-13));
#344=CARTESIAN_POINT('Ctrl Pts',(102.,324.,1.28785870856518E-13));
#345=CARTESIAN_POINT('Ctrl Pts',(-116.,106.,-89.9250837579103));
#346=CARTESIAN_POINT('Ctrl Pts',(-116.000000000244,324.000000000244,-89.9250837579103));
#347=CARTESIAN_POINT('Ctrl Pts',(102.,324.,-89.9250837579103));
#348=CARTESIAN_POINT('Ctrl Pts',(-28.913032466683,106.,-112.338936053269));
#349=CARTESIAN_POINT('Ctrl Pts',(-28.9130324668292,236.913032466829,-112.338936053269));
#350=CARTESIAN_POINT('Ctrl Pts',(102.,236.913032466683,-112.338936053269));
#351=CARTESIAN_POINT('Ctrl Pts',(58.1739350666341,106.,-134.752788348628));
#352=CARTESIAN_POINT('Ctrl Pts',(58.1739350665852,149.826064933415,-134.752788348628));
#353=CARTESIAN_POINT('Ctrl Pts',(102.,149.826064933366,-134.752788348628));
#354=CARTESIAN_POINT('Ctrl Pts',(101.586837130699,106.,-56.0010225065654));
#355=CARTESIAN_POINT('Ctrl Pts',(101.586837130698,106.413162869302,-56.0010225065654));
#356=CARTESIAN_POINT('Ctrl Pts',(102.,106.413162869301,-56.0010225065654));
#357=CARTESIAN_POINT('Origin',(0.,106.,0.));
#358=CARTESIAN_POINT('Origin',(102.,208.,0.));
#359=CARTESIAN_POINT('Origin',(0.,0.,0.));
#360=CARTESIAN_POINT('',(116.,0.5,1.42059028701093E-14));
#361=CARTESIAN_POINT('Origin',(0.,0.5,0.));
#362=CARTESIAN_POINT('Origin',(207.5,208.,0.));
#363=CARTESIAN_POINT('',(207.5,108.,1.22464679914735E-14));
#364=CARTESIAN_POINT('Origin',(207.5,208.,0.));
#365=CARTESIAN_POINT('',(208.,107.5,-1.23077003314309E-14));
#366=CARTESIAN_POINT('Origin',(208.,208.,0.));
#367=CARTESIAN_POINT('Origin',(208.,208.,-2.041789470575E-15));
#368=CARTESIAN_POINT('',(208.,92.5,1.41446705301519E-14));
#369=CARTESIAN_POINT('Origin',(208.,208.,0.));
#370=CARTESIAN_POINT('Origin',(208.,208.,0.));
#371=CARTESIAN_POINT('',(102.,108.,1.22464679914735E-14));
#372=CARTESIAN_POINT('Origin',(102.,208.,0.));
#373=CARTESIAN_POINT('Origin',(207.5,208.,0.));
#374=CARTESIAN_POINT('',(207.5,92.,-1.42059028701093E-14));
#375=CARTESIAN_POINT('Origin',(207.5,208.,0.));
#376=CARTESIAN_POINT('Origin',(102.,208.,0.));
#377=CARTESIAN_POINT('Origin',(0.,0.5,0.));
#378=CARTESIAN_POINT('',(100.,0.5,-1.22464679914735E-14));
#379=CARTESIAN_POINT('Origin',(0.,0.5,0.));
#380=CARTESIAN_POINT('',(100.5,0.,1.23077003314309E-14));
#381=CARTESIAN_POINT('Origin',(0.,0.,0.));
#382=CARTESIAN_POINT('Origin',(-1.34345620626258E-14,0.,-2.041789470575E-15));
#383=CARTESIAN_POINT('',(115.5,0.,-1.41446705301519E-14));
#384=CARTESIAN_POINT('Origin',(0.,0.,0.));
#385=CARTESIAN_POINT('Origin',(0.,0.,0.));
#386=CARTESIAN_POINT('',(100.,106.,1.22464679914735E-14));
#387=CARTESIAN_POINT('Origin',(0.,106.,0.));
#388=CARTESIAN_POINT('Origin',(0.,0.5,0.));
#389=CARTESIAN_POINT('Origin',(102.,106.,0.));
#390=CARTESIAN_POINT('',(102.,304.,0.));
#391=CARTESIAN_POINT('Origin',(102.,208.,0.));
#392=CARTESIAN_POINT('',(-96.,106.,0.));
#393=CARTESIAN_POINT('Origin',(0.,106.,0.));
#394=CARTESIAN_POINT('Origin',(102.,208.,0.));
#395=CARTESIAN_POINT('Origin',(-5.75749057102346E-15,106.,0.));
#396=UNCERTAINTY_MEASURE_WITH_UNIT(LENGTH_MEASURE(0.01),#400,
'DISTANCE_ACCURACY_VALUE',
'Maximum model space distance between geometric entities at asserted c
onnectivities');
#397=UNCERTAINTY_MEASURE_WITH_UNIT(LENGTH_MEASURE(1.E-6),#400,
'DISTANCE_ACCURACY_VALUE',
'Maximum model space distance between geometric entities at asserted c
onnectivities');
#398=(
GEOMETRIC_REPRESENTATION_CONTEXT(3)
GLOBAL_UNCERTAINTY_ASSIGNED_CONTEXT((#396))
GLOBAL_UNIT_ASSIGNED_CONTEXT((#400,#403,#401))
REPRESENTATION_CONTEXT('','3D')
);
#399=(
GEOMETRIC_REPRESENTATION_CONTEXT(3)
GLOBAL_UNCERTAINTY_ASSIGNED_CONTEXT((#397))
GLOBAL_UNIT_ASSIGNED_CONTEXT((#400,#403,#401))
REPRESENTATION_CONTEXT('','3D')
);
#400=(
LENGTH_UNIT()
NAMED_UNIT(*)
SI_UNIT(.MILLI.,.METRE.)
);
#401=(
NAMED_UNIT(*)
SI_UNIT($,.STERADIAN.)
SOLID_ANGLE_UNIT()
);
#402=DIMENSIONAL_EXPONENTS(0.,0.,0.,0.,0.,0.,0.);
#403=(
CONVERSION_BASED_UNIT('degree',#405)
NAMED_UNIT(#402)
PLANE_ANGLE_UNIT()
);
#404=(
NAMED_UNIT(*)
PLANE_ANGLE_UNIT()
SI_UNIT($,.RADIAN.)
);
#405=PLANE_ANGLE_MEASURE_WITH_UNIT(PLANE_ANGLE_MEASURE(0.01745329252),#404);
#406=SHAPE_DEFINITION_REPRESENTATION(#407,#408);
#407=PRODUCT_DEFINITION_SHAPE('',$,#410);
#408=SHAPE_REPRESENTATION('',(#190),#398);
#409=PRODUCT_DEFINITION_CONTEXT('part definition',#414,'design');
#410=PRODUCT_DEFINITION('EL502000','EL502000',#411,#409);
#411=PRODUCT_DEFINITION_FORMATION('',$,#416);
#412=PRODUCT_RELATED_PRODUCT_CATEGORY('EL502000','EL502000',(#416));
#413=APPLICATION_PROTOCOL_DEFINITION('international standard',
'automotive_design',2009,#414);
#414=APPLICATION_CONTEXT(
'Core Data for Automotive Mechanical Design Process');
#415=PRODUCT_CONTEXT('part definition',#414,'mechanical');
#416=PRODUCT('EL502000','EL502000',$,(#415));
#417=PRESENTATION_STYLE_ASSIGNMENT((#418));
#418=SURFACE_STYLE_USAGE(.BOTH.,#419);
#419=SURFACE_SIDE_STYLE('',(#420));
#420=SURFACE_STYLE_FILL_AREA(#421);
#421=FILL_AREA_STYLE('',(#422));
#422=FILL_AREA_STYLE_COLOUR('',#423);
#423=COLOUR_RGB('',0.8,0.8,0.8);
ENDSEC;
END-ISO-10303-21;
