ISO-10303-21;
HEADER;
/* Generated by software containing ST-Developer
 * from STEP Tools, Inc. (www.steptools.com) 
 */

FILE_DESCRIPTION(
/* description */ (''),
/* implementation_level */ '2;1');

FILE_NAME(
/* name */ 'C:\\Users\\Gabriele\\Desktop\\catalogo\\TY40\\TY400900.stp',

/* time_stamp */ '2016-10-18T16:21:12+02:00',
/* author */ ('Gabriele'),
/* organization */ (''),
/* preprocessor_version */ 'ST-DEVELOPER v16.5',
/* originating_system */ 'Autodesk Inventor 2017',
/* authorisation */ '');

FILE_SCHEMA (('AUTOMOTIVE_DESIGN { 1 0 10303 214 3 1 1 }'));
ENDSEC;

DATA;
#10=MECHANICAL_DESIGN_GEOMETRIC_PRESENTATION_REPRESENTATION('',(#13),#437);
#11=SHAPE_REPRESENTATION_RELATIONSHIP('SRR','None',#446,#12);
#12=ADVANCED_BREP_SHAPE_REPRESENTATION('',(#14),#436);
#13=STYLED_ITEM('',(#455),#14);
#14=MANIFOLD_SOLID_BREP('Solido1',#243);
#15=ELLIPSE('',#256,138.495674276896,53.);
#16=ELLIPSE('',#257,57.3667866154969,53.);
#17=ELLIPSE('',#278,46.5428646125729,43.);
#18=ELLIPSE('',#279,112.364414979368,43.);
#19=CYLINDRICAL_SURFACE('',#250,45.);
#20=CYLINDRICAL_SURFACE('',#254,53.);
#21=CYLINDRICAL_SURFACE('',#263,45.);
#22=CYLINDRICAL_SURFACE('',#267,53.);
#23=CYLINDRICAL_SURFACE('',#274,45.);
#24=CYLINDRICAL_SURFACE('',#276,43.);
#25=CYLINDRICAL_SURFACE('',#282,43.);
#26=PLANE('',#248);
#27=PLANE('',#261);
#28=PLANE('',#270);
#29=PLANE('',#280);
#30=PLANE('',#284);
#31=PLANE('',#285);
#32=FACE_BOUND('',#73,.T.);
#33=FACE_BOUND('',#75,.T.);
#34=FACE_BOUND('',#77,.T.);
#35=FACE_BOUND('',#79,.T.);
#36=FACE_BOUND('',#81,.T.);
#37=FACE_BOUND('',#82,.T.);
#38=FACE_BOUND('',#84,.T.);
#39=FACE_BOUND('',#86,.T.);
#40=FACE_BOUND('',#88,.T.);
#41=FACE_BOUND('',#90,.T.);
#42=FACE_BOUND('',#92,.T.);
#43=FACE_BOUND('',#94,.T.);
#44=FACE_BOUND('',#96,.T.);
#45=FACE_BOUND('',#98,.T.);
#46=FACE_BOUND('',#100,.T.);
#47=FACE_BOUND('',#102,.T.);
#48=FACE_BOUND('',#104,.T.);
#49=FACE_BOUND('',#106,.T.);
#50=FACE_BOUND('',#107,.T.);
#51=FACE_BOUND('',#109,.T.);
#52=FACE_BOUND('',#111,.T.);
#53=FACE_OUTER_BOUND('',#72,.T.);
#54=FACE_OUTER_BOUND('',#74,.T.);
#55=FACE_OUTER_BOUND('',#76,.T.);
#56=FACE_OUTER_BOUND('',#78,.T.);
#57=FACE_OUTER_BOUND('',#80,.T.);
#58=FACE_OUTER_BOUND('',#83,.T.);
#59=FACE_OUTER_BOUND('',#85,.T.);
#60=FACE_OUTER_BOUND('',#87,.T.);
#61=FACE_OUTER_BOUND('',#89,.T.);
#62=FACE_OUTER_BOUND('',#91,.T.);
#63=FACE_OUTER_BOUND('',#93,.T.);
#64=FACE_OUTER_BOUND('',#95,.T.);
#65=FACE_OUTER_BOUND('',#97,.T.);
#66=FACE_OUTER_BOUND('',#99,.T.);
#67=FACE_OUTER_BOUND('',#101,.T.);
#68=FACE_OUTER_BOUND('',#103,.T.);
#69=FACE_OUTER_BOUND('',#105,.T.);
#70=FACE_OUTER_BOUND('',#108,.T.);
#71=FACE_OUTER_BOUND('',#110,.T.);
#72=EDGE_LOOP('',(#174));
#73=EDGE_LOOP('',(#175));
#74=EDGE_LOOP('',(#176));
#75=EDGE_LOOP('',(#177));
#76=EDGE_LOOP('',(#178));
#77=EDGE_LOOP('',(#179));
#78=EDGE_LOOP('',(#180));
#79=EDGE_LOOP('',(#181));
#80=EDGE_LOOP('',(#182));
#81=EDGE_LOOP('',(#183,#184));
#82=EDGE_LOOP('',(#185));
#83=EDGE_LOOP('',(#186));
#84=EDGE_LOOP('',(#187));
#85=EDGE_LOOP('',(#188));
#86=EDGE_LOOP('',(#189));
#87=EDGE_LOOP('',(#190));
#88=EDGE_LOOP('',(#191));
#89=EDGE_LOOP('',(#192));
#90=EDGE_LOOP('',(#193));
#91=EDGE_LOOP('',(#194,#195));
#92=EDGE_LOOP('',(#196));
#93=EDGE_LOOP('',(#197));
#94=EDGE_LOOP('',(#198));
#95=EDGE_LOOP('',(#199));
#96=EDGE_LOOP('',(#200));
#97=EDGE_LOOP('',(#201));
#98=EDGE_LOOP('',(#202));
#99=EDGE_LOOP('',(#203));
#100=EDGE_LOOP('',(#204));
#101=EDGE_LOOP('',(#205));
#102=EDGE_LOOP('',(#206,#207));
#103=EDGE_LOOP('',(#208));
#104=EDGE_LOOP('',(#209));
#105=EDGE_LOOP('',(#210));
#106=EDGE_LOOP('',(#211,#212));
#107=EDGE_LOOP('',(#213));
#108=EDGE_LOOP('',(#214));
#109=EDGE_LOOP('',(#215));
#110=EDGE_LOOP('',(#216));
#111=EDGE_LOOP('',(#217));
#112=CIRCLE('',#246,45.);
#113=CIRCLE('',#247,45.5);
#114=CIRCLE('',#249,52.5);
#115=CIRCLE('',#251,45.);
#116=CIRCLE('',#253,53.);
#117=CIRCLE('',#255,53.);
#118=CIRCLE('',#259,45.);
#119=CIRCLE('',#260,45.5);
#120=CIRCLE('',#262,52.5);
#121=CIRCLE('',#264,45.);
#122=CIRCLE('',#266,53.);
#123=CIRCLE('',#269,52.5);
#124=CIRCLE('',#271,45.5);
#125=CIRCLE('',#273,45.);
#126=CIRCLE('',#275,45.);
#127=CIRCLE('',#277,43.);
#128=CIRCLE('',#281,43.);
#129=CIRCLE('',#283,43.);
#130=VERTEX_POINT('',#372);
#131=VERTEX_POINT('',#374);
#132=VERTEX_POINT('',#377);
#133=VERTEX_POINT('',#380);
#134=VERTEX_POINT('',#383);
#135=VERTEX_POINT('',#386);
#136=VERTEX_POINT('',#388);
#137=VERTEX_POINT('',#389);
#138=VERTEX_POINT('',#393);
#139=VERTEX_POINT('',#395);
#140=VERTEX_POINT('',#398);
#141=VERTEX_POINT('',#401);
#142=VERTEX_POINT('',#404);
#143=VERTEX_POINT('',#408);
#144=VERTEX_POINT('',#411);
#145=VERTEX_POINT('',#414);
#146=VERTEX_POINT('',#417);
#147=VERTEX_POINT('',#420);
#148=VERTEX_POINT('',#422);
#149=VERTEX_POINT('',#423);
#150=VERTEX_POINT('',#427);
#151=VERTEX_POINT('',#430);
#152=EDGE_CURVE('',#130,#130,#112,.T.);
#153=EDGE_CURVE('',#131,#131,#113,.T.);
#154=EDGE_CURVE('',#132,#132,#114,.T.);
#155=EDGE_CURVE('',#133,#133,#115,.T.);
#156=EDGE_CURVE('',#134,#134,#116,.T.);
#157=EDGE_CURVE('',#135,#135,#117,.T.);
#158=EDGE_CURVE('',#136,#137,#15,.T.);
#159=EDGE_CURVE('',#137,#136,#16,.T.);
#160=EDGE_CURVE('',#138,#138,#118,.T.);
#161=EDGE_CURVE('',#139,#139,#119,.T.);
#162=EDGE_CURVE('',#140,#140,#120,.T.);
#163=EDGE_CURVE('',#141,#141,#121,.T.);
#164=EDGE_CURVE('',#142,#142,#122,.T.);
#165=EDGE_CURVE('',#143,#143,#123,.T.);
#166=EDGE_CURVE('',#144,#144,#124,.T.);
#167=EDGE_CURVE('',#145,#145,#125,.T.);
#168=EDGE_CURVE('',#146,#146,#126,.T.);
#169=EDGE_CURVE('',#147,#147,#127,.T.);
#170=EDGE_CURVE('',#148,#149,#17,.T.);
#171=EDGE_CURVE('',#149,#148,#18,.T.);
#172=EDGE_CURVE('',#150,#150,#128,.T.);
#173=EDGE_CURVE('',#151,#151,#129,.T.);
#174=ORIENTED_EDGE('',*,*,#152,.T.);
#175=ORIENTED_EDGE('',*,*,#153,.T.);
#176=ORIENTED_EDGE('',*,*,#154,.F.);
#177=ORIENTED_EDGE('',*,*,#153,.F.);
#178=ORIENTED_EDGE('',*,*,#155,.T.);
#179=ORIENTED_EDGE('',*,*,#152,.F.);
#180=ORIENTED_EDGE('',*,*,#156,.T.);
#181=ORIENTED_EDGE('',*,*,#154,.T.);
#182=ORIENTED_EDGE('',*,*,#157,.F.);
#183=ORIENTED_EDGE('',*,*,#158,.T.);
#184=ORIENTED_EDGE('',*,*,#159,.T.);
#185=ORIENTED_EDGE('',*,*,#156,.F.);
#186=ORIENTED_EDGE('',*,*,#160,.T.);
#187=ORIENTED_EDGE('',*,*,#161,.T.);
#188=ORIENTED_EDGE('',*,*,#162,.F.);
#189=ORIENTED_EDGE('',*,*,#161,.F.);
#190=ORIENTED_EDGE('',*,*,#163,.T.);
#191=ORIENTED_EDGE('',*,*,#160,.F.);
#192=ORIENTED_EDGE('',*,*,#162,.T.);
#193=ORIENTED_EDGE('',*,*,#164,.T.);
#194=ORIENTED_EDGE('',*,*,#159,.F.);
#195=ORIENTED_EDGE('',*,*,#158,.F.);
#196=ORIENTED_EDGE('',*,*,#164,.F.);
#197=ORIENTED_EDGE('',*,*,#165,.T.);
#198=ORIENTED_EDGE('',*,*,#157,.T.);
#199=ORIENTED_EDGE('',*,*,#165,.F.);
#200=ORIENTED_EDGE('',*,*,#166,.F.);
#201=ORIENTED_EDGE('',*,*,#167,.T.);
#202=ORIENTED_EDGE('',*,*,#166,.T.);
#203=ORIENTED_EDGE('',*,*,#168,.T.);
#204=ORIENTED_EDGE('',*,*,#167,.F.);
#205=ORIENTED_EDGE('',*,*,#169,.F.);
#206=ORIENTED_EDGE('',*,*,#170,.F.);
#207=ORIENTED_EDGE('',*,*,#171,.F.);
#208=ORIENTED_EDGE('',*,*,#155,.F.);
#209=ORIENTED_EDGE('',*,*,#172,.T.);
#210=ORIENTED_EDGE('',*,*,#173,.F.);
#211=ORIENTED_EDGE('',*,*,#170,.T.);
#212=ORIENTED_EDGE('',*,*,#171,.T.);
#213=ORIENTED_EDGE('',*,*,#172,.F.);
#214=ORIENTED_EDGE('',*,*,#163,.F.);
#215=ORIENTED_EDGE('',*,*,#169,.T.);
#216=ORIENTED_EDGE('',*,*,#168,.F.);
#217=ORIENTED_EDGE('',*,*,#173,.T.);
#218=TOROIDAL_SURFACE('',#245,45.5,0.5);
#219=TOROIDAL_SURFACE('',#252,52.5,0.5);
#220=TOROIDAL_SURFACE('',#258,45.5,0.5);
#221=TOROIDAL_SURFACE('',#265,52.5,0.5);
#222=TOROIDAL_SURFACE('',#268,52.5,0.5);
#223=TOROIDAL_SURFACE('',#272,45.5,0.5);
#224=ADVANCED_FACE('',(#53,#32),#218,.T.);
#225=ADVANCED_FACE('',(#54,#33),#26,.F.);
#226=ADVANCED_FACE('',(#55,#34),#19,.F.);
#227=ADVANCED_FACE('',(#56,#35),#219,.T.);
#228=ADVANCED_FACE('',(#57,#36,#37),#20,.T.);
#229=ADVANCED_FACE('',(#58,#38),#220,.T.);
#230=ADVANCED_FACE('',(#59,#39),#27,.T.);
#231=ADVANCED_FACE('',(#60,#40),#21,.F.);
#232=ADVANCED_FACE('',(#61,#41),#221,.T.);
#233=ADVANCED_FACE('',(#62,#42),#22,.T.);
#234=ADVANCED_FACE('',(#63,#43),#222,.T.);
#235=ADVANCED_FACE('',(#64,#44),#28,.T.);
#236=ADVANCED_FACE('',(#65,#45),#223,.T.);
#237=ADVANCED_FACE('',(#66,#46),#23,.F.);
#238=ADVANCED_FACE('',(#67,#47),#24,.F.);
#239=ADVANCED_FACE('',(#68,#48),#29,.F.);
#240=ADVANCED_FACE('',(#69,#49,#50),#25,.F.);
#241=ADVANCED_FACE('',(#70,#51),#30,.F.);
#242=ADVANCED_FACE('',(#71,#52),#31,.T.);
#243=CLOSED_SHELL('',(#224,#225,#226,#227,#228,#229,#230,#231,#232,#233,
#234,#235,#236,#237,#238,#239,#240,#241,#242));
#244=AXIS2_PLACEMENT_3D('placement',#370,#286,#287);
#245=AXIS2_PLACEMENT_3D('',#371,#288,#289);
#246=AXIS2_PLACEMENT_3D('',#373,#290,#291);
#247=AXIS2_PLACEMENT_3D('',#375,#292,#293);
#248=AXIS2_PLACEMENT_3D('',#376,#294,#295);
#249=AXIS2_PLACEMENT_3D('',#378,#296,#297);
#250=AXIS2_PLACEMENT_3D('',#379,#298,#299);
#251=AXIS2_PLACEMENT_3D('',#381,#300,#301);
#252=AXIS2_PLACEMENT_3D('',#382,#302,#303);
#253=AXIS2_PLACEMENT_3D('',#384,#304,#305);
#254=AXIS2_PLACEMENT_3D('',#385,#306,#307);
#255=AXIS2_PLACEMENT_3D('',#387,#308,#309);
#256=AXIS2_PLACEMENT_3D('',#390,#310,#311);
#257=AXIS2_PLACEMENT_3D('',#391,#312,#313);
#258=AXIS2_PLACEMENT_3D('',#392,#314,#315);
#259=AXIS2_PLACEMENT_3D('',#394,#316,#317);
#260=AXIS2_PLACEMENT_3D('',#396,#318,#319);
#261=AXIS2_PLACEMENT_3D('',#397,#320,#321);
#262=AXIS2_PLACEMENT_3D('',#399,#322,#323);
#263=AXIS2_PLACEMENT_3D('',#400,#324,#325);
#264=AXIS2_PLACEMENT_3D('',#402,#326,#327);
#265=AXIS2_PLACEMENT_3D('',#403,#328,#329);
#266=AXIS2_PLACEMENT_3D('',#405,#330,#331);
#267=AXIS2_PLACEMENT_3D('',#406,#332,#333);
#268=AXIS2_PLACEMENT_3D('',#407,#334,#335);
#269=AXIS2_PLACEMENT_3D('',#409,#336,#337);
#270=AXIS2_PLACEMENT_3D('',#410,#338,#339);
#271=AXIS2_PLACEMENT_3D('',#412,#340,#341);
#272=AXIS2_PLACEMENT_3D('',#413,#342,#343);
#273=AXIS2_PLACEMENT_3D('',#415,#344,#345);
#274=AXIS2_PLACEMENT_3D('',#416,#346,#347);
#275=AXIS2_PLACEMENT_3D('',#418,#348,#349);
#276=AXIS2_PLACEMENT_3D('',#419,#350,#351);
#277=AXIS2_PLACEMENT_3D('',#421,#352,#353);
#278=AXIS2_PLACEMENT_3D('',#424,#354,#355);
#279=AXIS2_PLACEMENT_3D('',#425,#356,#357);
#280=AXIS2_PLACEMENT_3D('',#426,#358,#359);
#281=AXIS2_PLACEMENT_3D('',#428,#360,#361);
#282=AXIS2_PLACEMENT_3D('',#429,#362,#363);
#283=AXIS2_PLACEMENT_3D('',#431,#364,#365);
#284=AXIS2_PLACEMENT_3D('',#432,#366,#367);
#285=AXIS2_PLACEMENT_3D('',#433,#368,#369);
#286=DIRECTION('axis',(0.,0.,1.));
#287=DIRECTION('refdir',(1.,0.,0.));
#288=DIRECTION('center_axis',(1.,0.,0.));
#289=DIRECTION('ref_axis',(0.,0.,-1.));
#290=DIRECTION('center_axis',(1.,0.,0.));
#291=DIRECTION('ref_axis',(0.,0.,-1.));
#292=DIRECTION('center_axis',(-1.,0.,0.));
#293=DIRECTION('ref_axis',(0.,0.,-1.));
#294=DIRECTION('center_axis',(1.,0.,0.));
#295=DIRECTION('ref_axis',(0.,0.,-1.));
#296=DIRECTION('center_axis',(1.,0.,0.));
#297=DIRECTION('ref_axis',(0.,-1.,0.));
#298=DIRECTION('center_axis',(1.,0.,0.));
#299=DIRECTION('ref_axis',(0.,0.,-1.));
#300=DIRECTION('center_axis',(1.,0.,0.));
#301=DIRECTION('ref_axis',(0.,0.,-1.));
#302=DIRECTION('center_axis',(-1.,0.,0.));
#303=DIRECTION('ref_axis',(0.,0.,1.));
#304=DIRECTION('center_axis',(-1.,0.,0.));
#305=DIRECTION('ref_axis',(0.,-1.,0.));
#306=DIRECTION('center_axis',(-1.,0.,0.));
#307=DIRECTION('ref_axis',(0.,-1.,0.));
#308=DIRECTION('center_axis',(1.,0.,0.));
#309=DIRECTION('ref_axis',(0.,-1.,0.));
#310=DIRECTION('center_axis',(0.38268343236509,-0.923879532511287,0.));
#311=DIRECTION('ref_axis',(0.923879532511287,0.38268343236509,0.));
#312=DIRECTION('center_axis',(-0.923879532511287,-0.382683432365091,0.));
#313=DIRECTION('ref_axis',(0.382683432365091,-0.923879532511286,0.));
#314=DIRECTION('center_axis',(-0.707106781186547,-0.707106781186548,0.));
#315=DIRECTION('ref_axis',(0.,0.,1.));
#316=DIRECTION('center_axis',(-0.707106781186547,-0.707106781186548,0.));
#317=DIRECTION('ref_axis',(0.707106781186548,-0.707106781186547,0.));
#318=DIRECTION('center_axis',(0.707106781186547,0.707106781186548,0.));
#319=DIRECTION('ref_axis',(0.707106781186548,-0.707106781186547,0.));
#320=DIRECTION('center_axis',(0.707106781186547,0.707106781186548,0.));
#321=DIRECTION('ref_axis',(0.,0.,-1.));
#322=DIRECTION('center_axis',(-0.707106781186547,-0.707106781186548,0.));
#323=DIRECTION('ref_axis',(-0.707106781186548,0.707106781186547,1.22464679914735E-16));
#324=DIRECTION('center_axis',(-0.707106781186547,-0.707106781186548,0.));
#325=DIRECTION('ref_axis',(0.707106781186548,-0.707106781186547,0.));
#326=DIRECTION('center_axis',(-0.707106781186547,-0.707106781186548,0.));
#327=DIRECTION('ref_axis',(0.707106781186548,-0.707106781186547,0.));
#328=DIRECTION('center_axis',(-0.707106781186547,-0.707106781186548,0.));
#329=DIRECTION('ref_axis',(0.,0.,1.));
#330=DIRECTION('center_axis',(0.707106781186547,0.707106781186548,0.));
#331=DIRECTION('ref_axis',(-0.707106781186548,0.707106781186547,1.22464679914735E-16));
#332=DIRECTION('center_axis',(-0.707106781186547,-0.707106781186548,0.));
#333=DIRECTION('ref_axis',(0.707106781186548,-0.707106781186547,0.));
#334=DIRECTION('center_axis',(-1.,0.,0.));
#335=DIRECTION('ref_axis',(0.,0.,1.));
#336=DIRECTION('center_axis',(-1.,0.,0.));
#337=DIRECTION('ref_axis',(0.,-1.,0.));
#338=DIRECTION('center_axis',(1.,0.,0.));
#339=DIRECTION('ref_axis',(0.,0.,-1.));
#340=DIRECTION('center_axis',(1.,0.,0.));
#341=DIRECTION('ref_axis',(0.,0.,1.));
#342=DIRECTION('center_axis',(-1.,0.,0.));
#343=DIRECTION('ref_axis',(0.,0.,1.));
#344=DIRECTION('center_axis',(-1.,0.,0.));
#345=DIRECTION('ref_axis',(0.,0.,1.));
#346=DIRECTION('center_axis',(-1.,0.,0.));
#347=DIRECTION('ref_axis',(0.,0.,1.));
#348=DIRECTION('center_axis',(-1.,0.,0.));
#349=DIRECTION('ref_axis',(0.,0.,1.));
#350=DIRECTION('center_axis',(-0.707106781186547,-0.707106781186548,0.));
#351=DIRECTION('ref_axis',(0.707106781186548,-0.707106781186547,0.));
#352=DIRECTION('center_axis',(-0.707106781186547,-0.707106781186548,0.));
#353=DIRECTION('ref_axis',(0.707106781186548,-0.707106781186547,0.));
#354=DIRECTION('center_axis',(0.923879532511287,0.38268343236509,0.));
#355=DIRECTION('ref_axis',(0.38268343236509,-0.923879532511287,0.));
#356=DIRECTION('center_axis',(-0.38268343236509,0.923879532511287,0.));
#357=DIRECTION('ref_axis',(0.923879532511287,0.38268343236509,0.));
#358=DIRECTION('center_axis',(1.,0.,0.));
#359=DIRECTION('ref_axis',(0.,0.,-1.));
#360=DIRECTION('center_axis',(1.,0.,0.));
#361=DIRECTION('ref_axis',(0.,0.,-1.));
#362=DIRECTION('center_axis',(1.,0.,0.));
#363=DIRECTION('ref_axis',(0.,0.,-1.));
#364=DIRECTION('center_axis',(-1.,0.,0.));
#365=DIRECTION('ref_axis',(0.,0.,-1.));
#366=DIRECTION('center_axis',(-0.707106781186547,-0.707106781186548,0.));
#367=DIRECTION('ref_axis',(0.,0.,1.));
#368=DIRECTION('center_axis',(1.,0.,0.));
#369=DIRECTION('ref_axis',(0.,0.,-1.));
#370=CARTESIAN_POINT('',(0.,0.,0.));
#371=CARTESIAN_POINT('Origin',(-71.5000000000001,-8.81745695386094E-15,
0.));
#372=CARTESIAN_POINT('',(-71.5000000000001,-1.4328367550024E-14,45.));
#373=CARTESIAN_POINT('Origin',(-71.5000000000001,-8.81745695386094E-15,
0.));
#374=CARTESIAN_POINT('',(-72.0000000000001,-3.24531401774049E-15,45.5));
#375=CARTESIAN_POINT('Origin',(-72.0000000000001,-8.81745695386094E-15,
0.));
#376=CARTESIAN_POINT('Origin',(-72.0000000000001,-9.35834262348436E-15,
0.));
#377=CARTESIAN_POINT('',(-72.0000000000001,52.5,6.4293956955236E-15));
#378=CARTESIAN_POINT('Origin',(-72.0000000000001,0.,0.));
#379=CARTESIAN_POINT('Origin',(-72.0000000000001,-8.81745695386094E-15,
0.));
#380=CARTESIAN_POINT('',(-21.0000000000001,-3.30654635769785E-15,45.));
#381=CARTESIAN_POINT('Origin',(-21.0000000000001,-8.81745695386094E-15,
0.));
#382=CARTESIAN_POINT('Origin',(-71.5000000000001,0.,0.));
#383=CARTESIAN_POINT('',(-71.5000000000001,53.,-6.49062803548097E-15));
#384=CARTESIAN_POINT('Origin',(-71.5000000000001,0.,0.));
#385=CARTESIAN_POINT('Origin',(164.,0.,0.));
#386=CARTESIAN_POINT('',(163.5,53.,6.49062803548097E-15));
#387=CARTESIAN_POINT('Origin',(163.5,0.,0.));
#388=CARTESIAN_POINT('',(5.66007699496076E-28,3.55271367880044E-14,-53.));
#389=CARTESIAN_POINT('',(5.66007699496076E-28,3.55271367880044E-14,53.));
#390=CARTESIAN_POINT('Origin',(0.,0.,0.));
#391=CARTESIAN_POINT('Origin',(-8.88178419700125E-15,-1.77635683940025E-14,
0.));
#392=CARTESIAN_POINT('Origin',(115.611958724,115.611958724,0.));
#393=CARTESIAN_POINT('',(83.7921535706057,147.431763877395,-5.51091059616309E-15));
#394=CARTESIAN_POINT('Origin',(115.611958724,115.611958724,0.));
#395=CARTESIAN_POINT('',(83.7921535706057,148.138870658582,5.57214293612046E-15));
#396=CARTESIAN_POINT('Origin',(115.965512114594,115.965512114594,0.));
#397=CARTESIAN_POINT('Origin',(153.442171517481,78.4888527117067,0.));
#398=CARTESIAN_POINT('',(153.088618126887,78.8424061023,3.94430452610506E-30));
#399=CARTESIAN_POINT('Origin',(115.965512114594,115.965512114594,0.));
#400=CARTESIAN_POINT('Origin',(115.965512114594,115.965512114594,0.));
#401=CARTESIAN_POINT('',(48.0832611206851,111.722871427474,5.51091059616309E-15));
#402=CARTESIAN_POINT('Origin',(79.9030662740797,79.9030662740798,0.));
#403=CARTESIAN_POINT('Origin',(115.611958724,115.611958724,0.));
#404=CARTESIAN_POINT('',(153.088618126887,78.1352993211135,-1.29812560709619E-14));
#405=CARTESIAN_POINT('Origin',(115.611958724,115.611958724,0.));
#406=CARTESIAN_POINT('Origin',(57.9827560572968,57.9827560572969,0.));
#407=CARTESIAN_POINT('Origin',(163.5,0.,0.));
#408=CARTESIAN_POINT('',(164.,52.5,-6.4293956955236E-15));
#409=CARTESIAN_POINT('Origin',(164.,0.,0.));
#410=CARTESIAN_POINT('Origin',(164.,-5.40885669623414E-16,0.));
#411=CARTESIAN_POINT('',(164.,5.57214293612046E-15,-45.5));
#412=CARTESIAN_POINT('Origin',(164.,0.,0.));
#413=CARTESIAN_POINT('Origin',(163.5,0.,0.));
#414=CARTESIAN_POINT('',(163.5,-5.51091059616309E-15,-45.));
#415=CARTESIAN_POINT('Origin',(163.5,0.,0.));
#416=CARTESIAN_POINT('Origin',(164.,0.,0.));
#417=CARTESIAN_POINT('',(113.,5.51091059616309E-15,-45.));
#418=CARTESIAN_POINT('Origin',(113.,0.,0.));
#419=CARTESIAN_POINT('Origin',(79.9030662740798,79.9030662740798,0.));
#420=CARTESIAN_POINT('',(49.4974746830582,110.308657865101,5.26598123633362E-15));
#421=CARTESIAN_POINT('Origin',(79.9030662740798,79.9030662740798,0.));
#422=CARTESIAN_POINT('',(-4.44089209850063E-14,-1.77635683940025E-14,-43.));
#423=CARTESIAN_POINT('',(-4.44089209850063E-14,-1.77635683940025E-14,43.));
#424=CARTESIAN_POINT('Origin',(-4.44089209850063E-14,-1.77635683940025E-14,
0.));
#425=CARTESIAN_POINT('Origin',(-6.21724893790088E-14,-3.5527136788005E-14,
0.));
#426=CARTESIAN_POINT('Origin',(-21.,-8.04867556416294E-15,-1.77506243071748E-15));
#427=CARTESIAN_POINT('',(-21.,-3.55147571752732E-15,43.));
#428=CARTESIAN_POINT('Origin',(-21.,-8.81745695386094E-15,0.));
#429=CARTESIAN_POINT('Origin',(-21.,-8.81745695386094E-15,0.));
#430=CARTESIAN_POINT('',(113.,-3.55147571752732E-15,43.));
#431=CARTESIAN_POINT('Origin',(113.,-8.81745695386094E-15,0.));
#432=CARTESIAN_POINT('Origin',(79.9030662740797,79.9030662740799,0.));
#433=CARTESIAN_POINT('Origin',(113.,0.,1.77506243071748E-15));
#434=UNCERTAINTY_MEASURE_WITH_UNIT(LENGTH_MEASURE(0.01),#438,
'DISTANCE_ACCURACY_VALUE',
'Maximum model space distance between geometric entities at asserted c
onnectivities');
#435=UNCERTAINTY_MEASURE_WITH_UNIT(LENGTH_MEASURE(1.E-6),#438,
'DISTANCE_ACCURACY_VALUE',
'Maximum model space distance between geometric entities at asserted c
onnectivities');
#436=(
GEOMETRIC_REPRESENTATION_CONTEXT(3)
GLOBAL_UNCERTAINTY_ASSIGNED_CONTEXT((#434))
GLOBAL_UNIT_ASSIGNED_CONTEXT((#438,#441,#439))
REPRESENTATION_CONTEXT('','3D')
);
#437=(
GEOMETRIC_REPRESENTATION_CONTEXT(3)
GLOBAL_UNCERTAINTY_ASSIGNED_CONTEXT((#435))
GLOBAL_UNIT_ASSIGNED_CONTEXT((#438,#441,#439))
REPRESENTATION_CONTEXT('','3D')
);
#438=(
LENGTH_UNIT()
NAMED_UNIT(*)
SI_UNIT(.MILLI.,.METRE.)
);
#439=(
NAMED_UNIT(*)
SI_UNIT($,.STERADIAN.)
SOLID_ANGLE_UNIT()
);
#440=DIMENSIONAL_EXPONENTS(0.,0.,0.,0.,0.,0.,0.);
#441=(
CONVERSION_BASED_UNIT('degree',#443)
NAMED_UNIT(#440)
PLANE_ANGLE_UNIT()
);
#442=(
NAMED_UNIT(*)
PLANE_ANGLE_UNIT()
SI_UNIT($,.RADIAN.)
);
#443=PLANE_ANGLE_MEASURE_WITH_UNIT(PLANE_ANGLE_MEASURE(0.01745329252),#442);
#444=SHAPE_DEFINITION_REPRESENTATION(#445,#446);
#445=PRODUCT_DEFINITION_SHAPE('',$,#448);
#446=SHAPE_REPRESENTATION('',(#244),#436);
#447=PRODUCT_DEFINITION_CONTEXT('part definition',#452,'design');
#448=PRODUCT_DEFINITION('TY400900','TY400900',#449,#447);
#449=PRODUCT_DEFINITION_FORMATION('',$,#454);
#450=PRODUCT_RELATED_PRODUCT_CATEGORY('TY400900','TY400900',(#454));
#451=APPLICATION_PROTOCOL_DEFINITION('international standard',
'automotive_design',2009,#452);
#452=APPLICATION_CONTEXT(
'Core Data for Automotive Mechanical Design Process');
#453=PRODUCT_CONTEXT('part definition',#452,'mechanical');
#454=PRODUCT('TY400900','TY400900',$,(#453));
#455=PRESENTATION_STYLE_ASSIGNMENT((#456));
#456=SURFACE_STYLE_USAGE(.BOTH.,#457);
#457=SURFACE_SIDE_STYLE('',(#458));
#458=SURFACE_STYLE_FILL_AREA(#459);
#459=FILL_AREA_STYLE('',(#460));
#460=FILL_AREA_STYLE_COLOUR('',#461);
#461=COLOUR_RGB('',0.8,0.8,0.8);
ENDSEC;
END-ISO-10303-21;
