ISO-10303-21;
HEADER;
/* Generated by software containing ST-Developer
 * from STEP Tools, Inc. (www.steptools.com) 
 */

FILE_DESCRIPTION(
/* description */ (''),
/* implementation_level */ '2;1');

FILE_NAME(
/* name */ 
'Y:\\INVENTOR\\3.Arbeitsgruppe_Step-Ableitteile\\Serie3\\3F\\3F130G_ta
b\\3F130G14xx.stp',
/* time_stamp */ '2017-10-20T10:11:37+02:00',
/* author */ ('aruf'),
/* organization */ (''),
/* preprocessor_version */ 'ST-DEVELOPER v16.13',
/* originating_system */ 'Autodesk Inventor 2018',
/* authorisation */ '');

FILE_SCHEMA (('AUTOMOTIVE_DESIGN { 1 0 10303 214 3 1 1 }'));
ENDSEC;

DATA;
#10=MECHANICAL_DESIGN_GEOMETRIC_PRESENTATION_REPRESENTATION('',(#13),#545);
#11=SHAPE_REPRESENTATION_RELATIONSHIP('SRR','None',#552,#12);
#12=ADVANCED_BREP_SHAPE_REPRESENTATION('',(#14),#544);
#13=STYLED_ITEM('',(#561),#14);
#14=MANIFOLD_SOLID_BREP('Volumenk\X\F6rper1',#298);
#15=LINE('',#503,#27);
#16=LINE('',#505,#28);
#17=LINE('',#506,#29);
#18=LINE('',#509,#30);
#19=LINE('',#510,#31);
#20=LINE('',#513,#32);
#21=LINE('',#514,#33);
#22=LINE('',#517,#34);
#23=LINE('',#519,#35);
#24=LINE('',#520,#36);
#25=LINE('',#524,#37);
#26=LINE('',#526,#38);
#27=VECTOR('',#388,10.);
#28=VECTOR('',#389,10.);
#29=VECTOR('',#390,10.);
#30=VECTOR('',#393,10.);
#31=VECTOR('',#394,10.);
#32=VECTOR('',#397,10.);
#33=VECTOR('',#398,10.);
#34=VECTOR('',#401,10.);
#35=VECTOR('',#402,10.);
#36=VECTOR('',#403,10.);
#37=VECTOR('',#408,10.);
#38=VECTOR('',#411,10.);
#39=(
BOUNDED_CURVE()
B_SPLINE_CURVE(2,(#444,#445,#446),.UNSPECIFIED.,.F.,.F.)
B_SPLINE_CURVE_WITH_KNOTS((3,3),(0.497853260958957,0.995706521917913),
 .UNSPECIFIED.)
CURVE()
GEOMETRIC_REPRESENTATION_ITEM()
RATIONAL_B_SPLINE_CURVE((1.,1.03795484930204,1.))
REPRESENTATION_ITEM('')
);
#40=(
BOUNDED_CURVE()
B_SPLINE_CURVE(2,(#449,#450,#451),.UNSPECIFIED.,.F.,.F.)
B_SPLINE_CURVE_WITH_KNOTS((3,3),(0.,0.497853260958957),.UNSPECIFIED.)
CURVE()
GEOMETRIC_REPRESENTATION_ITEM()
RATIONAL_B_SPLINE_CURVE((1.,1.03795484930205,1.))
REPRESENTATION_ITEM('')
);
#41=(
BOUNDED_CURVE()
B_SPLINE_CURVE(2,(#455,#456,#457),.UNSPECIFIED.,.F.,.F.)
B_SPLINE_CURVE_WITH_KNOTS((3,3),(0.,0.497853260958957),.UNSPECIFIED.)
CURVE()
GEOMETRIC_REPRESENTATION_ITEM()
RATIONAL_B_SPLINE_CURVE((1.,1.03795484930205,1.))
REPRESENTATION_ITEM('')
);
#42=(
BOUNDED_CURVE()
B_SPLINE_CURVE(2,(#458,#459,#460),.UNSPECIFIED.,.F.,.F.)
B_SPLINE_CURVE_WITH_KNOTS((3,3),(0.497853260958957,0.995706521917913),
 .UNSPECIFIED.)
CURVE()
GEOMETRIC_REPRESENTATION_ITEM()
RATIONAL_B_SPLINE_CURVE((1.,1.03795484930206,1.))
REPRESENTATION_ITEM('')
);
#43=(
BOUNDED_CURVE()
B_SPLINE_CURVE(2,(#465,#466,#467),.UNSPECIFIED.,.F.,.F.)
B_SPLINE_CURVE_WITH_KNOTS((3,3),(0.497853260958957,0.995706521917914),
 .UNSPECIFIED.)
CURVE()
GEOMETRIC_REPRESENTATION_ITEM()
RATIONAL_B_SPLINE_CURVE((1.,1.03795484930204,1.))
REPRESENTATION_ITEM('')
);
#44=(
BOUNDED_CURVE()
B_SPLINE_CURVE(2,(#469,#470,#471),.UNSPECIFIED.,.F.,.F.)
B_SPLINE_CURVE_WITH_KNOTS((3,3),(0.,0.497853260958957),.UNSPECIFIED.)
CURVE()
GEOMETRIC_REPRESENTATION_ITEM()
RATIONAL_B_SPLINE_CURVE((1.,1.03795484930205,1.))
REPRESENTATION_ITEM('')
);
#45=(
BOUNDED_CURVE()
B_SPLINE_CURVE(2,(#475,#476,#477),.UNSPECIFIED.,.F.,.F.)
B_SPLINE_CURVE_WITH_KNOTS((3,3),(0.,0.497853260958957),.UNSPECIFIED.)
CURVE()
GEOMETRIC_REPRESENTATION_ITEM()
RATIONAL_B_SPLINE_CURVE((1.,1.03795484930205,1.))
REPRESENTATION_ITEM('')
);
#46=(
BOUNDED_CURVE()
B_SPLINE_CURVE(2,(#478,#479,#480),.UNSPECIFIED.,.F.,.F.)
B_SPLINE_CURVE_WITH_KNOTS((3,3),(0.497853260958957,0.995706521917914),
 .UNSPECIFIED.)
CURVE()
GEOMETRIC_REPRESENTATION_ITEM()
RATIONAL_B_SPLINE_CURVE((1.,1.03795484930206,1.))
REPRESENTATION_ITEM('')
);
#47=(
BOUNDED_CURVE()
B_SPLINE_CURVE(2,(#485,#486,#487),.UNSPECIFIED.,.F.,.F.)
B_SPLINE_CURVE_WITH_KNOTS((3,3),(0.497853260958957,0.995706521917913),
 .UNSPECIFIED.)
CURVE()
GEOMETRIC_REPRESENTATION_ITEM()
RATIONAL_B_SPLINE_CURVE((1.,1.03795484930204,1.))
REPRESENTATION_ITEM('')
);
#48=(
BOUNDED_CURVE()
B_SPLINE_CURVE(2,(#489,#490,#491),.UNSPECIFIED.,.F.,.F.)
B_SPLINE_CURVE_WITH_KNOTS((3,3),(0.,0.497853260958957),.UNSPECIFIED.)
CURVE()
GEOMETRIC_REPRESENTATION_ITEM()
RATIONAL_B_SPLINE_CURVE((1.,1.03795484930205,1.))
REPRESENTATION_ITEM('')
);
#49=(
BOUNDED_CURVE()
B_SPLINE_CURVE(2,(#494,#495,#496),.UNSPECIFIED.,.F.,.F.)
B_SPLINE_CURVE_WITH_KNOTS((3,3),(0.497853260958957,0.995706521917914),
 .UNSPECIFIED.)
CURVE()
GEOMETRIC_REPRESENTATION_ITEM()
RATIONAL_B_SPLINE_CURVE((1.,1.03795484930204,1.))
REPRESENTATION_ITEM('')
);
#50=(
BOUNDED_CURVE()
B_SPLINE_CURVE(2,(#498,#499,#500),.UNSPECIFIED.,.F.,.F.)
B_SPLINE_CURVE_WITH_KNOTS((3,3),(0.,0.497853260958957),.UNSPECIFIED.)
CURVE()
GEOMETRIC_REPRESENTATION_ITEM()
RATIONAL_B_SPLINE_CURVE((1.,1.03795484930203,1.))
REPRESENTATION_ITEM('')
);
#51=CONICAL_SURFACE('',#322,9.15747728811182,1.0471975511966);
#52=CONICAL_SURFACE('',#324,9.15747728811182,1.0471975511966);
#53=CONICAL_SURFACE('',#326,9.15747728811182,1.0471975511966);
#54=CONICAL_SURFACE('',#328,9.15747728811182,1.0471975511966);
#55=CONICAL_SURFACE('',#330,9.15747728811182,1.0471975511966);
#56=CONICAL_SURFACE('',#332,9.15747728811182,1.0471975511966);
#57=CONICAL_SURFACE('',#343,6.2035,0.785398163397448);
#58=PLANE('',#321);
#59=PLANE('',#334);
#60=PLANE('',#335);
#61=PLANE('',#336);
#62=PLANE('',#337);
#63=PLANE('',#339);
#64=PLANE('',#340);
#65=PLANE('',#341);
#66=PLANE('',#342);
#67=PLANE('',#346);
#68=PLANE('',#349);
#69=FACE_BOUND('',#98,.T.);
#70=FACE_BOUND('',#110,.T.);
#71=FACE_BOUND('',#116,.T.);
#72=FACE_BOUND('',#118,.T.);
#73=FACE_BOUND('',#120,.T.);
#74=FACE_BOUND('',#122,.T.);
#75=FACE_BOUND('',#124,.T.);
#76=FACE_OUTER_BOUND('',#97,.T.);
#77=FACE_OUTER_BOUND('',#99,.T.);
#78=FACE_OUTER_BOUND('',#100,.T.);
#79=FACE_OUTER_BOUND('',#101,.T.);
#80=FACE_OUTER_BOUND('',#102,.T.);
#81=FACE_OUTER_BOUND('',#103,.T.);
#82=FACE_OUTER_BOUND('',#104,.T.);
#83=FACE_OUTER_BOUND('',#105,.T.);
#84=FACE_OUTER_BOUND('',#106,.T.);
#85=FACE_OUTER_BOUND('',#107,.T.);
#86=FACE_OUTER_BOUND('',#108,.T.);
#87=FACE_OUTER_BOUND('',#109,.T.);
#88=FACE_OUTER_BOUND('',#111,.T.);
#89=FACE_OUTER_BOUND('',#112,.T.);
#90=FACE_OUTER_BOUND('',#113,.T.);
#91=FACE_OUTER_BOUND('',#114,.T.);
#92=FACE_OUTER_BOUND('',#115,.T.);
#93=FACE_OUTER_BOUND('',#117,.T.);
#94=FACE_OUTER_BOUND('',#119,.T.);
#95=FACE_OUTER_BOUND('',#121,.T.);
#96=FACE_OUTER_BOUND('',#123,.T.);
#97=EDGE_LOOP('',(#200));
#98=EDGE_LOOP('',(#201));
#99=EDGE_LOOP('',(#202));
#100=EDGE_LOOP('',(#203,#204,#205));
#101=EDGE_LOOP('',(#206,#207,#208));
#102=EDGE_LOOP('',(#209,#210,#211));
#103=EDGE_LOOP('',(#212,#213,#214));
#104=EDGE_LOOP('',(#215,#216,#217));
#105=EDGE_LOOP('',(#218,#219,#220));
#106=EDGE_LOOP('',(#221,#222,#223,#224,#225));
#107=EDGE_LOOP('',(#226,#227,#228,#229,#230));
#108=EDGE_LOOP('',(#231,#232,#233,#234,#235));
#109=EDGE_LOOP('',(#236,#237,#238,#239,#240,#241));
#110=EDGE_LOOP('',(#242));
#111=EDGE_LOOP('',(#243,#244,#245,#246,#247));
#112=EDGE_LOOP('',(#248,#249,#250,#251,#252));
#113=EDGE_LOOP('',(#253,#254,#255,#256,#257));
#114=EDGE_LOOP('',(#258,#259,#260,#261,#262,#263));
#115=EDGE_LOOP('',(#264));
#116=EDGE_LOOP('',(#265));
#117=EDGE_LOOP('',(#266));
#118=EDGE_LOOP('',(#267));
#119=EDGE_LOOP('',(#268));
#120=EDGE_LOOP('',(#269));
#121=EDGE_LOOP('',(#270));
#122=EDGE_LOOP('',(#271));
#123=EDGE_LOOP('',(#272));
#124=EDGE_LOOP('',(#273));
#125=CIRCLE('',#319,3.5);
#126=CIRCLE('',#320,3.5);
#127=CIRCLE('',#323,8.5);
#128=CIRCLE('',#325,8.5);
#129=CIRCLE('',#327,8.5);
#130=CIRCLE('',#329,8.5);
#131=CIRCLE('',#331,8.5);
#132=CIRCLE('',#333,8.5);
#133=CIRCLE('',#338,8.);
#134=CIRCLE('',#344,5.8285);
#135=CIRCLE('',#345,6.5785);
#136=CIRCLE('',#348,8.);
#137=CIRCLE('',#350,6.5785);
#138=VERTEX_POINT('',#436);
#139=VERTEX_POINT('',#438);
#140=VERTEX_POINT('',#442);
#141=VERTEX_POINT('',#443);
#142=VERTEX_POINT('',#447);
#143=VERTEX_POINT('',#453);
#144=VERTEX_POINT('',#454);
#145=VERTEX_POINT('',#463);
#146=VERTEX_POINT('',#464);
#147=VERTEX_POINT('',#473);
#148=VERTEX_POINT('',#474);
#149=VERTEX_POINT('',#483);
#150=VERTEX_POINT('',#484);
#151=VERTEX_POINT('',#493);
#152=VERTEX_POINT('',#502);
#153=VERTEX_POINT('',#504);
#154=VERTEX_POINT('',#508);
#155=VERTEX_POINT('',#512);
#156=VERTEX_POINT('',#516);
#157=VERTEX_POINT('',#518);
#158=VERTEX_POINT('',#521);
#159=VERTEX_POINT('',#530);
#160=VERTEX_POINT('',#532);
#161=VERTEX_POINT('',#536);
#162=VERTEX_POINT('',#539);
#163=EDGE_CURVE('',#138,#138,#125,.T.);
#164=EDGE_CURVE('',#139,#139,#126,.T.);
#165=EDGE_CURVE('',#140,#141,#39,.T.);
#166=EDGE_CURVE('',#142,#140,#127,.T.);
#167=EDGE_CURVE('',#141,#142,#40,.T.);
#168=EDGE_CURVE('',#143,#144,#41,.T.);
#169=EDGE_CURVE('',#142,#143,#42,.T.);
#170=EDGE_CURVE('',#144,#142,#128,.T.);
#171=EDGE_CURVE('',#145,#146,#43,.T.);
#172=EDGE_CURVE('',#140,#145,#129,.T.);
#173=EDGE_CURVE('',#146,#140,#44,.T.);
#174=EDGE_CURVE('',#147,#148,#45,.T.);
#175=EDGE_CURVE('',#144,#147,#46,.T.);
#176=EDGE_CURVE('',#148,#144,#130,.T.);
#177=EDGE_CURVE('',#149,#150,#47,.T.);
#178=EDGE_CURVE('',#145,#149,#131,.T.);
#179=EDGE_CURVE('',#150,#145,#48,.T.);
#180=EDGE_CURVE('',#148,#151,#49,.T.);
#181=EDGE_CURVE('',#149,#148,#132,.T.);
#182=EDGE_CURVE('',#151,#149,#50,.T.);
#183=EDGE_CURVE('',#152,#150,#15,.T.);
#184=EDGE_CURVE('',#152,#153,#16,.T.);
#185=EDGE_CURVE('',#153,#151,#17,.T.);
#186=EDGE_CURVE('',#154,#146,#18,.T.);
#187=EDGE_CURVE('',#154,#152,#19,.T.);
#188=EDGE_CURVE('',#155,#141,#20,.T.);
#189=EDGE_CURVE('',#155,#154,#21,.T.);
#190=EDGE_CURVE('',#156,#155,#22,.T.);
#191=EDGE_CURVE('',#157,#156,#23,.T.);
#192=EDGE_CURVE('',#153,#157,#24,.T.);
#193=EDGE_CURVE('',#158,#158,#133,.T.);
#194=EDGE_CURVE('',#156,#143,#25,.T.);
#195=EDGE_CURVE('',#157,#147,#26,.T.);
#196=EDGE_CURVE('',#159,#159,#134,.T.);
#197=EDGE_CURVE('',#160,#160,#135,.T.);
#198=EDGE_CURVE('',#161,#161,#136,.T.);
#199=EDGE_CURVE('',#162,#162,#137,.T.);
#200=ORIENTED_EDGE('',*,*,#163,.F.);
#201=ORIENTED_EDGE('',*,*,#164,.F.);
#202=ORIENTED_EDGE('',*,*,#164,.T.);
#203=ORIENTED_EDGE('',*,*,#165,.F.);
#204=ORIENTED_EDGE('',*,*,#166,.F.);
#205=ORIENTED_EDGE('',*,*,#167,.F.);
#206=ORIENTED_EDGE('',*,*,#168,.F.);
#207=ORIENTED_EDGE('',*,*,#169,.F.);
#208=ORIENTED_EDGE('',*,*,#170,.F.);
#209=ORIENTED_EDGE('',*,*,#171,.F.);
#210=ORIENTED_EDGE('',*,*,#172,.F.);
#211=ORIENTED_EDGE('',*,*,#173,.F.);
#212=ORIENTED_EDGE('',*,*,#174,.F.);
#213=ORIENTED_EDGE('',*,*,#175,.F.);
#214=ORIENTED_EDGE('',*,*,#176,.F.);
#215=ORIENTED_EDGE('',*,*,#177,.F.);
#216=ORIENTED_EDGE('',*,*,#178,.F.);
#217=ORIENTED_EDGE('',*,*,#179,.F.);
#218=ORIENTED_EDGE('',*,*,#180,.F.);
#219=ORIENTED_EDGE('',*,*,#181,.F.);
#220=ORIENTED_EDGE('',*,*,#182,.F.);
#221=ORIENTED_EDGE('',*,*,#182,.T.);
#222=ORIENTED_EDGE('',*,*,#177,.T.);
#223=ORIENTED_EDGE('',*,*,#183,.F.);
#224=ORIENTED_EDGE('',*,*,#184,.T.);
#225=ORIENTED_EDGE('',*,*,#185,.T.);
#226=ORIENTED_EDGE('',*,*,#179,.T.);
#227=ORIENTED_EDGE('',*,*,#171,.T.);
#228=ORIENTED_EDGE('',*,*,#186,.F.);
#229=ORIENTED_EDGE('',*,*,#187,.T.);
#230=ORIENTED_EDGE('',*,*,#183,.T.);
#231=ORIENTED_EDGE('',*,*,#173,.T.);
#232=ORIENTED_EDGE('',*,*,#165,.T.);
#233=ORIENTED_EDGE('',*,*,#188,.F.);
#234=ORIENTED_EDGE('',*,*,#189,.T.);
#235=ORIENTED_EDGE('',*,*,#186,.T.);
#236=ORIENTED_EDGE('',*,*,#189,.F.);
#237=ORIENTED_EDGE('',*,*,#190,.F.);
#238=ORIENTED_EDGE('',*,*,#191,.F.);
#239=ORIENTED_EDGE('',*,*,#192,.F.);
#240=ORIENTED_EDGE('',*,*,#184,.F.);
#241=ORIENTED_EDGE('',*,*,#187,.F.);
#242=ORIENTED_EDGE('',*,*,#193,.F.);
#243=ORIENTED_EDGE('',*,*,#169,.T.);
#244=ORIENTED_EDGE('',*,*,#194,.F.);
#245=ORIENTED_EDGE('',*,*,#190,.T.);
#246=ORIENTED_EDGE('',*,*,#188,.T.);
#247=ORIENTED_EDGE('',*,*,#167,.T.);
#248=ORIENTED_EDGE('',*,*,#175,.T.);
#249=ORIENTED_EDGE('',*,*,#195,.F.);
#250=ORIENTED_EDGE('',*,*,#191,.T.);
#251=ORIENTED_EDGE('',*,*,#194,.T.);
#252=ORIENTED_EDGE('',*,*,#168,.T.);
#253=ORIENTED_EDGE('',*,*,#180,.T.);
#254=ORIENTED_EDGE('',*,*,#185,.F.);
#255=ORIENTED_EDGE('',*,*,#192,.T.);
#256=ORIENTED_EDGE('',*,*,#195,.T.);
#257=ORIENTED_EDGE('',*,*,#174,.T.);
#258=ORIENTED_EDGE('',*,*,#166,.T.);
#259=ORIENTED_EDGE('',*,*,#172,.T.);
#260=ORIENTED_EDGE('',*,*,#178,.T.);
#261=ORIENTED_EDGE('',*,*,#181,.T.);
#262=ORIENTED_EDGE('',*,*,#176,.T.);
#263=ORIENTED_EDGE('',*,*,#170,.T.);
#264=ORIENTED_EDGE('',*,*,#196,.F.);
#265=ORIENTED_EDGE('',*,*,#197,.T.);
#266=ORIENTED_EDGE('',*,*,#196,.T.);
#267=ORIENTED_EDGE('',*,*,#163,.T.);
#268=ORIENTED_EDGE('',*,*,#198,.F.);
#269=ORIENTED_EDGE('',*,*,#193,.T.);
#270=ORIENTED_EDGE('',*,*,#198,.T.);
#271=ORIENTED_EDGE('',*,*,#199,.F.);
#272=ORIENTED_EDGE('',*,*,#197,.F.);
#273=ORIENTED_EDGE('',*,*,#199,.T.);
#274=CYLINDRICAL_SURFACE('',#318,3.5);
#275=CYLINDRICAL_SURFACE('',#347,8.);
#276=CYLINDRICAL_SURFACE('',#351,6.5785);
#277=ADVANCED_FACE('',(#76,#69),#274,.F.);
#278=ADVANCED_FACE('',(#77),#58,.T.);
#279=ADVANCED_FACE('',(#78),#51,.T.);
#280=ADVANCED_FACE('',(#79),#52,.T.);
#281=ADVANCED_FACE('',(#80),#53,.T.);
#282=ADVANCED_FACE('',(#81),#54,.T.);
#283=ADVANCED_FACE('',(#82),#55,.T.);
#284=ADVANCED_FACE('',(#83),#56,.T.);
#285=ADVANCED_FACE('',(#84),#59,.T.);
#286=ADVANCED_FACE('',(#85),#60,.T.);
#287=ADVANCED_FACE('',(#86),#61,.T.);
#288=ADVANCED_FACE('',(#87,#70),#62,.T.);
#289=ADVANCED_FACE('',(#88),#63,.T.);
#290=ADVANCED_FACE('',(#89),#64,.T.);
#291=ADVANCED_FACE('',(#90),#65,.T.);
#292=ADVANCED_FACE('',(#91),#66,.T.);
#293=ADVANCED_FACE('',(#92,#71),#57,.T.);
#294=ADVANCED_FACE('',(#93,#72),#67,.T.);
#295=ADVANCED_FACE('',(#94,#73),#275,.T.);
#296=ADVANCED_FACE('',(#95,#74),#68,.T.);
#297=ADVANCED_FACE('',(#96,#75),#276,.T.);
#298=CLOSED_SHELL('',(#277,#278,#279,#280,#281,#282,#283,#284,#285,#286,
#287,#288,#289,#290,#291,#292,#293,#294,#295,#296,#297));
#299=DERIVED_UNIT_ELEMENT(#301,1.);
#300=DERIVED_UNIT_ELEMENT(#547,3.);
#301=(
MASS_UNIT()
NAMED_UNIT(*)
SI_UNIT($,.GRAM.)
);
#302=DERIVED_UNIT((#299,#300));
#303=MEASURE_REPRESENTATION_ITEM('density measure',
POSITIVE_RATIO_MEASURE(1.),#302);
#304=PROPERTY_DEFINITION_REPRESENTATION(#309,#306);
#305=PROPERTY_DEFINITION_REPRESENTATION(#310,#307);
#306=REPRESENTATION('material name',(#308),#544);
#307=REPRESENTATION('density',(#303),#544);
#308=DESCRIPTIVE_REPRESENTATION_ITEM('Generisch','Generisch');
#309=PROPERTY_DEFINITION('material property','material name',#554);
#310=PROPERTY_DEFINITION('material property','density of part',#554);
#311=DATE_TIME_ROLE('creation_date');
#312=APPLIED_DATE_AND_TIME_ASSIGNMENT(#313,#311,(#554));
#313=DATE_AND_TIME(#314,#315);
#314=CALENDAR_DATE(2017,19,10);
#315=LOCAL_TIME(11,41,39.,#316);
#316=COORDINATED_UNIVERSAL_TIME_OFFSET(0,0,.BEHIND.);
#317=AXIS2_PLACEMENT_3D('placement',#434,#352,#353);
#318=AXIS2_PLACEMENT_3D('',#435,#354,#355);
#319=AXIS2_PLACEMENT_3D('',#437,#356,#357);
#320=AXIS2_PLACEMENT_3D('',#439,#358,#359);
#321=AXIS2_PLACEMENT_3D('',#440,#360,#361);
#322=AXIS2_PLACEMENT_3D('',#441,#362,#363);
#323=AXIS2_PLACEMENT_3D('',#448,#364,#365);
#324=AXIS2_PLACEMENT_3D('',#452,#366,#367);
#325=AXIS2_PLACEMENT_3D('',#461,#368,#369);
#326=AXIS2_PLACEMENT_3D('',#462,#370,#371);
#327=AXIS2_PLACEMENT_3D('',#468,#372,#373);
#328=AXIS2_PLACEMENT_3D('',#472,#374,#375);
#329=AXIS2_PLACEMENT_3D('',#481,#376,#377);
#330=AXIS2_PLACEMENT_3D('',#482,#378,#379);
#331=AXIS2_PLACEMENT_3D('',#488,#380,#381);
#332=AXIS2_PLACEMENT_3D('',#492,#382,#383);
#333=AXIS2_PLACEMENT_3D('',#497,#384,#385);
#334=AXIS2_PLACEMENT_3D('',#501,#386,#387);
#335=AXIS2_PLACEMENT_3D('',#507,#391,#392);
#336=AXIS2_PLACEMENT_3D('',#511,#395,#396);
#337=AXIS2_PLACEMENT_3D('',#515,#399,#400);
#338=AXIS2_PLACEMENT_3D('',#522,#404,#405);
#339=AXIS2_PLACEMENT_3D('',#523,#406,#407);
#340=AXIS2_PLACEMENT_3D('',#525,#409,#410);
#341=AXIS2_PLACEMENT_3D('',#527,#412,#413);
#342=AXIS2_PLACEMENT_3D('',#528,#414,#415);
#343=AXIS2_PLACEMENT_3D('',#529,#416,#417);
#344=AXIS2_PLACEMENT_3D('',#531,#418,#419);
#345=AXIS2_PLACEMENT_3D('',#533,#420,#421);
#346=AXIS2_PLACEMENT_3D('',#534,#422,#423);
#347=AXIS2_PLACEMENT_3D('',#535,#424,#425);
#348=AXIS2_PLACEMENT_3D('',#537,#426,#427);
#349=AXIS2_PLACEMENT_3D('',#538,#428,#429);
#350=AXIS2_PLACEMENT_3D('',#540,#430,#431);
#351=AXIS2_PLACEMENT_3D('',#541,#432,#433);
#352=DIRECTION('axis',(0.,0.,1.));
#353=DIRECTION('refdir',(1.,0.,0.));
#354=DIRECTION('center_axis',(1.,0.,0.));
#355=DIRECTION('ref_axis',(0.,1.,0.));
#356=DIRECTION('center_axis',(-1.,1.16514149783199E-32,-6.12323399573677E-17));
#357=DIRECTION('ref_axis',(0.,1.,0.));
#358=DIRECTION('center_axis',(1.,0.,0.));
#359=DIRECTION('ref_axis',(0.,1.,0.));
#360=DIRECTION('center_axis',(1.,0.,0.));
#361=DIRECTION('ref_axis',(0.,1.,0.));
#362=DIRECTION('center_axis',(1.,0.,0.));
#363=DIRECTION('ref_axis',(0.,0.,1.));
#364=DIRECTION('center_axis',(-1.,0.,0.));
#365=DIRECTION('ref_axis',(0.,0.,1.));
#366=DIRECTION('center_axis',(1.,0.,0.));
#367=DIRECTION('ref_axis',(0.,0.,1.));
#368=DIRECTION('center_axis',(-1.,0.,0.));
#369=DIRECTION('ref_axis',(0.,0.,1.));
#370=DIRECTION('center_axis',(1.,0.,0.));
#371=DIRECTION('ref_axis',(0.,0.,1.));
#372=DIRECTION('center_axis',(-1.,0.,0.));
#373=DIRECTION('ref_axis',(0.,0.,1.));
#374=DIRECTION('center_axis',(1.,0.,0.));
#375=DIRECTION('ref_axis',(0.,0.,1.));
#376=DIRECTION('center_axis',(-1.,0.,0.));
#377=DIRECTION('ref_axis',(0.,0.,1.));
#378=DIRECTION('center_axis',(1.,0.,0.));
#379=DIRECTION('ref_axis',(0.,0.,1.));
#380=DIRECTION('center_axis',(-1.,0.,0.));
#381=DIRECTION('ref_axis',(0.,0.,1.));
#382=DIRECTION('center_axis',(1.,0.,0.));
#383=DIRECTION('ref_axis',(0.,0.,1.));
#384=DIRECTION('center_axis',(-1.,0.,0.));
#385=DIRECTION('ref_axis',(0.,0.,1.));
#386=DIRECTION('center_axis',(0.,-0.5,0.866025403784438));
#387=DIRECTION('ref_axis',(0.,0.866025403784438,0.5));
#388=DIRECTION('',(-1.,0.,0.));
#389=DIRECTION('',(0.,0.866025403784438,0.5));
#390=DIRECTION('',(-1.,0.,0.));
#391=DIRECTION('center_axis',(0.,-1.,-2.26230904280419E-16));
#392=DIRECTION('ref_axis',(0.,-2.26230904280419E-16,1.));
#393=DIRECTION('',(-1.,0.,0.));
#394=DIRECTION('',(0.,-2.26230904280419E-16,1.));
#395=DIRECTION('center_axis',(0.,-0.5,-0.866025403784439));
#396=DIRECTION('ref_axis',(0.,-0.866025403784439,0.5));
#397=DIRECTION('',(-1.,0.,0.));
#398=DIRECTION('',(0.,-0.866025403784439,0.5));
#399=DIRECTION('center_axis',(1.,0.,0.));
#400=DIRECTION('ref_axis',(0.,0.,-1.));
#401=DIRECTION('',(0.,-0.866025403784439,-0.5));
#402=DIRECTION('',(0.,-2.26230904280419E-16,-1.));
#403=DIRECTION('',(0.,0.866025403784439,-0.5));
#404=DIRECTION('center_axis',(1.,-1.16514149783199E-32,6.12323399573677E-17));
#405=DIRECTION('ref_axis',(0.,-1.,-1.90282046814348E-16));
#406=DIRECTION('center_axis',(0.,0.5,-0.866025403784439));
#407=DIRECTION('ref_axis',(0.,-0.866025403784439,-0.5));
#408=DIRECTION('',(-1.,0.,0.));
#409=DIRECTION('center_axis',(0.,1.,-2.26230904280419E-16));
#410=DIRECTION('ref_axis',(0.,-2.26230904280419E-16,-1.));
#411=DIRECTION('',(-1.,0.,0.));
#412=DIRECTION('center_axis',(0.,0.5,0.866025403784439));
#413=DIRECTION('ref_axis',(0.,0.866025403784439,-0.5));
#414=DIRECTION('center_axis',(-1.,0.,0.));
#415=DIRECTION('ref_axis',(0.,0.,1.));
#416=DIRECTION('center_axis',(-1.,1.16514149783199E-32,-6.12323399573677E-17));
#417=DIRECTION('ref_axis',(0.,-1.,-1.90282046814348E-16));
#418=DIRECTION('center_axis',(1.,-1.16514149783199E-32,6.12323399573677E-17));
#419=DIRECTION('ref_axis',(0.,-1.,-1.90282046814348E-16));
#420=DIRECTION('center_axis',(1.,-1.16514149783199E-32,6.12323399573677E-17));
#421=DIRECTION('ref_axis',(0.,-1.,-1.90282046814348E-16));
#422=DIRECTION('center_axis',(1.,-1.16514149783199E-32,6.12323399573677E-17));
#423=DIRECTION('ref_axis',(6.12323399573677E-17,0.,-1.));
#424=DIRECTION('center_axis',(1.,-1.16514149783199E-32,6.12323399573677E-17));
#425=DIRECTION('ref_axis',(0.,-1.,-1.90282046814348E-16));
#426=DIRECTION('center_axis',(1.,-1.16514149783199E-32,6.12323399573677E-17));
#427=DIRECTION('ref_axis',(0.,-1.,-1.90282046814348E-16));
#428=DIRECTION('center_axis',(1.,-1.16514149783199E-32,6.12323399573677E-17));
#429=DIRECTION('ref_axis',(6.12323399573677E-17,0.,-1.));
#430=DIRECTION('center_axis',(1.,-1.16514149783199E-32,6.12323399573677E-17));
#431=DIRECTION('ref_axis',(0.,-1.,-1.90282046814348E-16));
#432=DIRECTION('center_axis',(1.,-1.16514149783199E-32,6.12323399573677E-17));
#433=DIRECTION('ref_axis',(0.,-1.,-1.90282046814348E-16));
#434=CARTESIAN_POINT('',(0.,0.,0.));
#435=CARTESIAN_POINT('Origin',(2.75,0.,0.));
#436=CARTESIAN_POINT('',(12.,3.5,0.));
#437=CARTESIAN_POINT('Origin',(12.,0.,0.));
#438=CARTESIAN_POINT('',(-6.5,3.5,0.));
#439=CARTESIAN_POINT('Origin',(-6.5,0.,0.));
#440=CARTESIAN_POINT('Origin',(-6.5,0.,0.));
#441=CARTESIAN_POINT('Origin',(-8.62040531072257,0.,0.));
#442=CARTESIAN_POINT('',(-9.,-4.25,-7.36121593216773));
#443=CARTESIAN_POINT('',(-8.24081062144515,-2.22044604925031E-15,-9.81495457622364));
#444=CARTESIAN_POINT('Ctrl Pts',(-9.,-4.25,-7.36121593216773));
#445=CARTESIAN_POINT('Ctrl Pts',(-9.,-2.27756813566455,-8.5));
#446=CARTESIAN_POINT('Ctrl Pts',(-8.24081062144515,-5.94966725733498E-16,
-9.81495457622364));
#447=CARTESIAN_POINT('',(-9.,4.25,-7.36121593216773));
#448=CARTESIAN_POINT('Origin',(-9.,0.,0.));
#449=CARTESIAN_POINT('Ctrl Pts',(-8.24081062144515,0.,-9.81495457622364));
#450=CARTESIAN_POINT('Ctrl Pts',(-9.,2.27756813566455,-8.5));
#451=CARTESIAN_POINT('Ctrl Pts',(-9.,4.25,-7.36121593216773));
#452=CARTESIAN_POINT('Origin',(-8.62040531072257,0.,0.));
#453=CARTESIAN_POINT('',(-8.24081062144515,8.5,-4.90747728811182));
#454=CARTESIAN_POINT('',(-9.,8.5,-1.94289029309402E-15));
#455=CARTESIAN_POINT('Ctrl Pts',(-8.24081062144515,8.5,-4.90747728811182));
#456=CARTESIAN_POINT('Ctrl Pts',(-9.,8.5,-2.27756813566455));
#457=CARTESIAN_POINT('Ctrl Pts',(-9.,8.5,-1.93221112084372E-15));
#458=CARTESIAN_POINT('Ctrl Pts',(-9.,4.25,-7.36121593216773));
#459=CARTESIAN_POINT('Ctrl Pts',(-9.,6.22243186433545,-6.22243186433546));
#460=CARTESIAN_POINT('Ctrl Pts',(-8.24081062144515,8.5,-4.90747728811182));
#461=CARTESIAN_POINT('Origin',(-9.,0.,0.));
#462=CARTESIAN_POINT('Origin',(-8.62040531072257,0.,0.));
#463=CARTESIAN_POINT('',(-9.,-8.5,-1.94289029309402E-15));
#464=CARTESIAN_POINT('',(-8.24081062144515,-8.5,-4.90747728811182));
#465=CARTESIAN_POINT('Ctrl Pts',(-9.,-8.5,-1.93221112084372E-15));
#466=CARTESIAN_POINT('Ctrl Pts',(-9.,-8.5,-2.27756813566455));
#467=CARTESIAN_POINT('Ctrl Pts',(-8.24081062144515,-8.5,-4.90747728811182));
#468=CARTESIAN_POINT('Origin',(-9.,0.,0.));
#469=CARTESIAN_POINT('Ctrl Pts',(-8.24081062144515,-8.5,-4.90747728811182));
#470=CARTESIAN_POINT('Ctrl Pts',(-9.,-6.22243186433545,-6.22243186433546));
#471=CARTESIAN_POINT('Ctrl Pts',(-9.,-4.25,-7.36121593216773));
#472=CARTESIAN_POINT('Origin',(-8.62040531072257,0.,0.));
#473=CARTESIAN_POINT('',(-8.24081062144515,8.5,4.90747728811182));
#474=CARTESIAN_POINT('',(-9.,4.25,7.36121593216773));
#475=CARTESIAN_POINT('Ctrl Pts',(-8.24081062144515,8.5,4.90747728811182));
#476=CARTESIAN_POINT('Ctrl Pts',(-9.,6.22243186433546,6.22243186433546));
#477=CARTESIAN_POINT('Ctrl Pts',(-9.,4.25,7.36121593216773));
#478=CARTESIAN_POINT('Ctrl Pts',(-9.,8.5,-1.93221112084372E-15));
#479=CARTESIAN_POINT('Ctrl Pts',(-9.,8.5,2.27756813566454));
#480=CARTESIAN_POINT('Ctrl Pts',(-8.24081062144515,8.5,4.90747728811182));
#481=CARTESIAN_POINT('Origin',(-9.,0.,0.));
#482=CARTESIAN_POINT('Origin',(-8.62040531072257,0.,0.));
#483=CARTESIAN_POINT('',(-9.,-4.25000000000001,7.36121593216773));
#484=CARTESIAN_POINT('',(-8.24081062144515,-8.5,4.90747728811182));
#485=CARTESIAN_POINT('Ctrl Pts',(-9.,-4.25000000000001,7.36121593216773));
#486=CARTESIAN_POINT('Ctrl Pts',(-9.,-6.22243186433546,6.22243186433546));
#487=CARTESIAN_POINT('Ctrl Pts',(-8.24081062144515,-8.5,4.90747728811182));
#488=CARTESIAN_POINT('Origin',(-9.,0.,0.));
#489=CARTESIAN_POINT('Ctrl Pts',(-8.24081062144515,-8.5,4.90747728811182));
#490=CARTESIAN_POINT('Ctrl Pts',(-9.,-8.5,2.27756813566454));
#491=CARTESIAN_POINT('Ctrl Pts',(-9.,-8.5,-1.93221112084372E-15));
#492=CARTESIAN_POINT('Origin',(-8.62040531072257,0.,0.));
#493=CARTESIAN_POINT('',(-8.24081062144515,0.,9.81495457622364));
#494=CARTESIAN_POINT('Ctrl Pts',(-9.,4.25,7.36121593216773));
#495=CARTESIAN_POINT('Ctrl Pts',(-9.,2.27756813566454,8.5));
#496=CARTESIAN_POINT('Ctrl Pts',(-8.24081062144515,-5.35470053160148E-15,
9.81495457622364));
#497=CARTESIAN_POINT('Origin',(-9.,0.,0.));
#498=CARTESIAN_POINT('Ctrl Pts',(-8.24081062144515,-7.73456743453548E-15,
9.81495457622364));
#499=CARTESIAN_POINT('Ctrl Pts',(-9.,-2.27756813566455,8.5));
#500=CARTESIAN_POINT('Ctrl Pts',(-9.,-4.25000000000001,7.36121593216773));
#501=CARTESIAN_POINT('Origin',(-2.,-8.5,4.90747728811182));
#502=CARTESIAN_POINT('',(-2.,-8.5,4.90747728811182));
#503=CARTESIAN_POINT('',(-2.,-8.5,4.90747728811182));
#504=CARTESIAN_POINT('',(-2.,-5.18511529602824E-15,9.81495457622364));
#505=CARTESIAN_POINT('',(-2.,-8.5,4.90747728811182));
#506=CARTESIAN_POINT('',(-2.,-5.18511529602824E-15,9.81495457622364));
#507=CARTESIAN_POINT('Origin',(-2.,-8.5,-4.90747728811182));
#508=CARTESIAN_POINT('',(-2.,-8.5,-4.90747728811182));
#509=CARTESIAN_POINT('',(-2.,-8.5,-4.90747728811182));
#510=CARTESIAN_POINT('',(-2.,-8.5,-4.90747728811182));
#511=CARTESIAN_POINT('Origin',(-2.,-2.27221949019396E-16,-9.81495457622364));
#512=CARTESIAN_POINT('',(-2.,-2.27221949019396E-16,-9.81495457622364));
#513=CARTESIAN_POINT('',(-2.,-2.27221949019396E-16,-9.81495457622364));
#514=CARTESIAN_POINT('',(-2.,-2.27221949019396E-16,-9.81495457622364));
#515=CARTESIAN_POINT('Origin',(-2.,-9.89760206226834E-16,1.41394315175262E-16));
#516=CARTESIAN_POINT('',(-2.,8.5,-4.90747728811182));
#517=CARTESIAN_POINT('',(-2.,8.5,-4.90747728811182));
#518=CARTESIAN_POINT('',(-2.,8.5,4.90747728811182));
#519=CARTESIAN_POINT('',(-2.,8.5,4.90747728811182));
#520=CARTESIAN_POINT('',(-2.,-5.18511529602824E-15,9.81495457622364));
#521=CARTESIAN_POINT('',(-2.,-8.,-1.52225637451479E-15));
#522=CARTESIAN_POINT('Origin',(-2.,1.63119809696479E-31,-4.62223186652937E-32));
#523=CARTESIAN_POINT('Origin',(-2.,8.5,-4.90747728811182));
#524=CARTESIAN_POINT('',(-2.,8.5,-4.90747728811182));
#525=CARTESIAN_POINT('Origin',(-2.,8.5,4.90747728811182));
#526=CARTESIAN_POINT('',(-2.,8.5,4.90747728811182));
#527=CARTESIAN_POINT('Origin',(-2.,-5.18511529602824E-15,9.81495457622364));
#528=CARTESIAN_POINT('Origin',(-9.,-9.89760206226834E-16,0.));
#529=CARTESIAN_POINT('Origin',(11.625,4.36928061686997E-33,8.34290631919134E-16));
#530=CARTESIAN_POINT('',(12.,-5.8285,-2.51806150454281E-16));
#531=CARTESIAN_POINT('Origin',(12.,0.,8.57252759403147E-16));
#532=CARTESIAN_POINT('',(11.25,-6.5785,-4.40441940533068E-16));
#533=CARTESIAN_POINT('Origin',(11.25,8.73856123373991E-33,8.11328504435122E-16));
#534=CARTESIAN_POINT('Origin',(12.,-2.91425,3.02723304474433E-16));
#535=CARTESIAN_POINT('Origin',(-1.,1.51468394718159E-31,6.12323399573676E-17));
#536=CARTESIAN_POINT('',(-5.55111512312578E-16,-8.,-1.39979169460005E-15));
#537=CARTESIAN_POINT('Origin',(-5.55111512312578E-16,1.39816979739839E-31,
1.22464679914735E-16));
#538=CARTESIAN_POINT('Origin',(-5.55111512312578E-16,-7.28925,-1.26454872982675E-15));
#539=CARTESIAN_POINT('',(-5.55111512312578E-16,-6.5785,-1.12930576505345E-15));
#540=CARTESIAN_POINT('Origin',(-5.55111512312578E-16,1.39816979739839E-31,
1.22464679914735E-16));
#541=CARTESIAN_POINT('Origin',(5.625,7.42777704867895E-32,4.66896592174928E-16));
#542=UNCERTAINTY_MEASURE_WITH_UNIT(LENGTH_MEASURE(0.01),#546,
'DISTANCE_ACCURACY_VALUE',
'Maximum model space distance between geometric entities at asserted c
onnectivities');
#543=UNCERTAINTY_MEASURE_WITH_UNIT(LENGTH_MEASURE(0.01),#546,
'DISTANCE_ACCURACY_VALUE',
'Maximum model space distance between geometric entities at asserted c
onnectivities');
#544=(
GEOMETRIC_REPRESENTATION_CONTEXT(3)
GLOBAL_UNCERTAINTY_ASSIGNED_CONTEXT((#542))
GLOBAL_UNIT_ASSIGNED_CONTEXT((#546,#549,#548))
REPRESENTATION_CONTEXT('','3D')
);
#545=(
GEOMETRIC_REPRESENTATION_CONTEXT(3)
GLOBAL_UNCERTAINTY_ASSIGNED_CONTEXT((#543))
GLOBAL_UNIT_ASSIGNED_CONTEXT((#546,#549,#548))
REPRESENTATION_CONTEXT('','3D')
);
#546=(
LENGTH_UNIT()
NAMED_UNIT(*)
SI_UNIT(.MILLI.,.METRE.)
);
#547=(
LENGTH_UNIT()
NAMED_UNIT(*)
SI_UNIT(.CENTI.,.METRE.)
);
#548=(
NAMED_UNIT(*)
SI_UNIT($,.STERADIAN.)
SOLID_ANGLE_UNIT()
);
#549=(
NAMED_UNIT(*)
PLANE_ANGLE_UNIT()
SI_UNIT($,.RADIAN.)
);
#550=SHAPE_DEFINITION_REPRESENTATION(#551,#552);
#551=PRODUCT_DEFINITION_SHAPE('',$,#554);
#552=SHAPE_REPRESENTATION('',(#317),#544);
#553=PRODUCT_DEFINITION_CONTEXT('part definition',#558,'design');
#554=PRODUCT_DEFINITION('3F130G14xx','3F130G14xx',#555,#553);
#555=PRODUCT_DEFINITION_FORMATION('',$,#560);
#556=PRODUCT_RELATED_PRODUCT_CATEGORY('3F130G14xx','3F130G14xx',(#560));
#557=APPLICATION_PROTOCOL_DEFINITION('international standard',
'automotive_design',2009,#558);
#558=APPLICATION_CONTEXT(
'Core Data for Automotive Mechanical Design Process');
#559=PRODUCT_CONTEXT('part definition',#558,'mechanical');
#560=PRODUCT('3F130G14xx','3F130G14xx',$,(#559));
#561=PRESENTATION_STYLE_ASSIGNMENT((#562));
#562=SURFACE_STYLE_USAGE(.BOTH.,#563);
#563=SURFACE_SIDE_STYLE('',(#564));
#564=SURFACE_STYLE_FILL_AREA(#565);
#565=FILL_AREA_STYLE('',(#566));
#566=FILL_AREA_STYLE_COLOUR('',#567);
#567=COLOUR_RGB('',0.749019607843137,0.749019607843137,0.749019607843137);
ENDSEC;
END-ISO-10303-21;
