ISO-10303-21;
HEADER;
/* Generated by software containing ST-Developer
 * from STEP Tools, Inc. (www.steptools.com) 
 */

FILE_DESCRIPTION(
/* description */ (''),
/* implementation_level */ '2;1');

FILE_NAME(
/* name */ 
'Q:\\Ric010\\FF7\\FIPlastiCAD\\FIP\\Lavoro\\PVC Fittings\\PVC Fittings
 STEP\\KIFV\\KIFV040032114.ipt.stp',
/* time_stamp */ '2013-10-01T14:44:32+02:00',
/* author */ ('bfaro'),
/* organization */ (''),
/* preprocessor_version */ 'ST-DEVELOPER v15.2',
/* originating_system */ 'Autodesk Inventor 2014',
/* authorisation */ '');

FILE_SCHEMA (('AUTOMOTIVE_DESIGN { 1 0 10303 214 3 1 1 }'));
ENDSEC;

DATA;
#10=SHAPE_REPRESENTATION_RELATIONSHIP('SRR','None',#604,#11);
#11=ADVANCED_BREP_SHAPE_REPRESENTATION($,(#356),#595);
#12=LINE($,#530,#44);
#13=LINE($,#531,#45);
#14=LINE($,#533,#46);
#15=LINE($,#535,#47);
#16=LINE($,#536,#48);
#17=LINE($,#540,#49);
#18=LINE($,#541,#50);
#19=LINE($,#542,#51);
#20=LINE($,#543,#52);
#21=LINE($,#548,#53);
#22=LINE($,#550,#54);
#23=LINE($,#552,#55);
#24=LINE($,#554,#56);
#25=LINE($,#555,#57);
#26=LINE($,#556,#58);
#27=LINE($,#558,#59);
#28=LINE($,#561,#60);
#29=LINE($,#562,#61);
#30=LINE($,#565,#62);
#31=LINE($,#566,#63);
#32=LINE($,#567,#64);
#33=LINE($,#570,#65);
#34=LINE($,#572,#66);
#35=LINE($,#573,#67);
#36=LINE($,#575,#68);
#37=LINE($,#577,#69);
#38=LINE($,#578,#70);
#39=LINE($,#580,#71);
#40=LINE($,#582,#72);
#41=LINE($,#583,#73);
#42=LINE($,#585,#74);
#43=LINE($,#586,#75);
#44=VECTOR($,#429,11.1);
#45=VECTOR($,#430,8.69848481349199);
#46=VECTOR($,#431,8.69848480594901);
#47=VECTOR($,#432,11.1);
#48=VECTOR($,#433,17.396969619441);
#49=VECTOR($,#436,11.1);
#50=VECTOR($,#437,8.69848490000878);
#51=VECTOR($,#438,8.69848471943068);
#52=VECTOR($,#439,17.3969696194395);
#53=VECTOR($,#444,17.396969619441);
#54=VECTOR($,#445,17.3969696194345);
#55=VECTOR($,#446,17.396969619441);
#56=VECTOR($,#447,17.3969696194338);
#57=VECTOR($,#448,17.396969619441);
#58=VECTOR($,#449,17.3969696232133);
#59=VECTOR($,#452,8.69835673982504);
#60=VECTOR($,#455,8.69861288338825);
#61=VECTOR($,#456,11.1);
#62=VECTOR($,#459,11.1);
#63=VECTOR($,#460,8.69848481012216);
#64=VECTOR($,#461,8.69848480931884);
#65=VECTOR($,#466,8.69848463762322);
#66=VECTOR($,#467,8.69848498181778);
#67=VECTOR($,#468,11.1);
#68=VECTOR($,#471,8.69848469977595);
#69=VECTOR($,#472,8.69848491965858);
#70=VECTOR($,#473,11.1);
#71=VECTOR($,#476,8.69848480486114);
#72=VECTOR($,#477,8.69848481457986);
#73=VECTOR($,#478,11.1);
#74=VECTOR($,#481,8.69859515830297);
#75=VECTOR($,#482,8.69837446113084);
#76=PLANE($,#374);
#77=PLANE($,#375);
#78=PLANE($,#376);
#79=PLANE($,#377);
#80=PLANE($,#378);
#81=PLANE($,#379);
#82=PLANE($,#380);
#83=PLANE($,#381);
#84=PLANE($,#382);
#85=PLANE($,#383);
#86=PLANE($,#384);
#87=PLANE($,#385);
#88=PLANE($,#386);
#89=PLANE($,#387);
#90=PLANE($,#388);
#91=PLANE($,#389);
#92=PLANE($,#390);
#93=PLANE($,#391);
#94=PLANE($,#392);
#95=STYLED_ITEM($,(#613),#335);
#96=STYLED_ITEM($,(#612),#356);
#97=FACE_BOUND($,#126,.T.);
#98=FACE_BOUND($,#128,.T.);
#99=FACE_BOUND($,#130,.T.);
#100=FACE_BOUND($,#135,.T.);
#101=FACE_BOUND($,#150,.T.);
#102=FACE_BOUND($,#152,.T.);
#103=FACE_OUTER_BOUND($,#125,.T.);
#104=FACE_OUTER_BOUND($,#127,.T.);
#105=FACE_OUTER_BOUND($,#129,.T.);
#106=FACE_OUTER_BOUND($,#131,.T.);
#107=FACE_OUTER_BOUND($,#132,.T.);
#108=FACE_OUTER_BOUND($,#133,.T.);
#109=FACE_OUTER_BOUND($,#134,.T.);
#110=FACE_OUTER_BOUND($,#136,.T.);
#111=FACE_OUTER_BOUND($,#137,.T.);
#112=FACE_OUTER_BOUND($,#138,.T.);
#113=FACE_OUTER_BOUND($,#139,.T.);
#114=FACE_OUTER_BOUND($,#140,.T.);
#115=FACE_OUTER_BOUND($,#141,.T.);
#116=FACE_OUTER_BOUND($,#142,.T.);
#117=FACE_OUTER_BOUND($,#143,.T.);
#118=FACE_OUTER_BOUND($,#144,.T.);
#119=FACE_OUTER_BOUND($,#145,.T.);
#120=FACE_OUTER_BOUND($,#146,.T.);
#121=FACE_OUTER_BOUND($,#147,.T.);
#122=FACE_OUTER_BOUND($,#148,.T.);
#123=FACE_OUTER_BOUND($,#149,.T.);
#124=FACE_OUTER_BOUND($,#151,.T.);
#125=EDGE_LOOP($,(#240));
#126=EDGE_LOOP($,(#241));
#127=EDGE_LOOP($,(#242));
#128=EDGE_LOOP($,(#243));
#129=EDGE_LOOP($,(#244));
#130=EDGE_LOOP($,(#245,#246,#247,#248,#249,#250,#251,#252));
#131=EDGE_LOOP($,(#253,#254,#255,#256,#257));
#132=EDGE_LOOP($,(#258,#259,#260,#261,#262));
#133=EDGE_LOOP($,(#263,#264,#265));
#134=EDGE_LOOP($,(#266,#267,#268,#269,#270,#271,#272,#273));
#135=EDGE_LOOP($,(#274));
#136=EDGE_LOOP($,(#275,#276,#277));
#137=EDGE_LOOP($,(#278,#279,#280,#281,#282));
#138=EDGE_LOOP($,(#283,#284,#285,#286,#287));
#139=EDGE_LOOP($,(#288,#289,#290));
#140=EDGE_LOOP($,(#291,#292,#293,#294,#295));
#141=EDGE_LOOP($,(#296,#297,#298,#299,#300));
#142=EDGE_LOOP($,(#301,#302,#303,#304,#305));
#143=EDGE_LOOP($,(#306,#307,#308,#309,#310));
#144=EDGE_LOOP($,(#311,#312,#313));
#145=EDGE_LOOP($,(#314,#315,#316));
#146=EDGE_LOOP($,(#317,#318,#319));
#147=EDGE_LOOP($,(#320,#321,#322));
#148=EDGE_LOOP($,(#323,#324,#325));
#149=EDGE_LOOP($,(#326));
#150=EDGE_LOOP($,(#327));
#151=EDGE_LOOP($,(#328));
#152=EDGE_LOOP($,(#329));
#153=CIRCLE($,#359,16.);
#154=CIRCLE($,#360,16.);
#155=CIRCLE($,#362,20.);
#156=CIRCLE($,#363,20.);
#157=CIRCLE($,#365,21.);
#158=CIRCLE($,#366,21.);
#159=CIRCLE($,#367,21.);
#160=CIRCLE($,#368,21.);
#161=CIRCLE($,#369,21.);
#162=CIRCLE($,#370,21.);
#163=CIRCLE($,#371,21.);
#164=CIRCLE($,#372,21.);
#165=CIRCLE($,#373,21.);
#166=VERTEX_POINT($,#499);
#167=VERTEX_POINT($,#501);
#168=VERTEX_POINT($,#504);
#169=VERTEX_POINT($,#506);
#170=VERTEX_POINT($,#509);
#171=VERTEX_POINT($,#511);
#172=VERTEX_POINT($,#512);
#173=VERTEX_POINT($,#514);
#174=VERTEX_POINT($,#516);
#175=VERTEX_POINT($,#518);
#176=VERTEX_POINT($,#520);
#177=VERTEX_POINT($,#522);
#178=VERTEX_POINT($,#524);
#179=VERTEX_POINT($,#528);
#180=VERTEX_POINT($,#529);
#181=VERTEX_POINT($,#532);
#182=VERTEX_POINT($,#534);
#183=VERTEX_POINT($,#538);
#184=VERTEX_POINT($,#539);
#185=VERTEX_POINT($,#546);
#186=VERTEX_POINT($,#547);
#187=VERTEX_POINT($,#549);
#188=VERTEX_POINT($,#551);
#189=VERTEX_POINT($,#553);
#190=VERTEX_POINT($,#560);
#191=VERTEX_POINT($,#564);
#192=VERTEX_POINT($,#571);
#193=VERTEX_POINT($,#576);
#194=VERTEX_POINT($,#581);
#195=EDGE_CURVE($,#166,#166,#153,.T.);
#196=EDGE_CURVE($,#167,#167,#154,.T.);
#197=EDGE_CURVE($,#168,#168,#155,.T.);
#198=EDGE_CURVE($,#169,#169,#156,.T.);
#199=EDGE_CURVE($,#170,#170,#157,.T.);
#200=EDGE_CURVE($,#171,#172,#158,.T.);
#201=EDGE_CURVE($,#173,#171,#159,.T.);
#202=EDGE_CURVE($,#174,#173,#160,.T.);
#203=EDGE_CURVE($,#175,#174,#161,.T.);
#204=EDGE_CURVE($,#176,#175,#162,.T.);
#205=EDGE_CURVE($,#177,#176,#163,.T.);
#206=EDGE_CURVE($,#178,#177,#164,.T.);
#207=EDGE_CURVE($,#172,#178,#165,.T.);
#208=EDGE_CURVE($,#179,#180,#12,.T.);
#209=EDGE_CURVE($,#179,#175,#13,.T.);
#210=EDGE_CURVE($,#175,#181,#14,.T.);
#211=EDGE_CURVE($,#181,#182,#15,.T.);
#212=EDGE_CURVE($,#180,#182,#16,.T.);
#213=EDGE_CURVE($,#183,#184,#17,.T.);
#214=EDGE_CURVE($,#183,#176,#18,.T.);
#215=EDGE_CURVE($,#176,#179,#19,.T.);
#216=EDGE_CURVE($,#184,#180,#20,.T.);
#217=EDGE_CURVE($,#185,#186,#21,.T.);
#218=EDGE_CURVE($,#186,#187,#22,.T.);
#219=EDGE_CURVE($,#187,#188,#23,.T.);
#220=EDGE_CURVE($,#188,#189,#24,.T.);
#221=EDGE_CURVE($,#189,#184,#25,.T.);
#222=EDGE_CURVE($,#182,#185,#26,.T.);
#223=EDGE_CURVE($,#181,#174,#27,.T.);
#224=EDGE_CURVE($,#174,#190,#28,.T.);
#225=EDGE_CURVE($,#190,#185,#29,.T.);
#226=EDGE_CURVE($,#191,#189,#30,.T.);
#227=EDGE_CURVE($,#191,#177,#31,.T.);
#228=EDGE_CURVE($,#177,#183,#32,.T.);
#229=EDGE_CURVE($,#190,#173,#33,.T.);
#230=EDGE_CURVE($,#173,#192,#34,.T.);
#231=EDGE_CURVE($,#192,#186,#35,.T.);
#232=EDGE_CURVE($,#192,#171,#36,.T.);
#233=EDGE_CURVE($,#171,#193,#37,.T.);
#234=EDGE_CURVE($,#193,#187,#38,.T.);
#235=EDGE_CURVE($,#193,#172,#39,.T.);
#236=EDGE_CURVE($,#172,#194,#40,.T.);
#237=EDGE_CURVE($,#194,#188,#41,.T.);
#238=EDGE_CURVE($,#194,#178,#42,.T.);
#239=EDGE_CURVE($,#178,#191,#43,.T.);
#240=ORIENTED_EDGE($,*,*,#195,.F.);
#241=ORIENTED_EDGE($,*,*,#196,.F.);
#242=ORIENTED_EDGE($,*,*,#197,.T.);
#243=ORIENTED_EDGE($,*,*,#198,.F.);
#244=ORIENTED_EDGE($,*,*,#199,.T.);
#245=ORIENTED_EDGE($,*,*,#200,.F.);
#246=ORIENTED_EDGE($,*,*,#201,.F.);
#247=ORIENTED_EDGE($,*,*,#202,.F.);
#248=ORIENTED_EDGE($,*,*,#203,.F.);
#249=ORIENTED_EDGE($,*,*,#204,.F.);
#250=ORIENTED_EDGE($,*,*,#205,.F.);
#251=ORIENTED_EDGE($,*,*,#206,.F.);
#252=ORIENTED_EDGE($,*,*,#207,.F.);
#253=ORIENTED_EDGE($,*,*,#208,.F.);
#254=ORIENTED_EDGE($,*,*,#209,.T.);
#255=ORIENTED_EDGE($,*,*,#210,.T.);
#256=ORIENTED_EDGE($,*,*,#211,.T.);
#257=ORIENTED_EDGE($,*,*,#212,.F.);
#258=ORIENTED_EDGE($,*,*,#213,.F.);
#259=ORIENTED_EDGE($,*,*,#214,.T.);
#260=ORIENTED_EDGE($,*,*,#215,.T.);
#261=ORIENTED_EDGE($,*,*,#208,.T.);
#262=ORIENTED_EDGE($,*,*,#216,.F.);
#263=ORIENTED_EDGE($,*,*,#204,.T.);
#264=ORIENTED_EDGE($,*,*,#209,.F.);
#265=ORIENTED_EDGE($,*,*,#215,.F.);
#266=ORIENTED_EDGE($,*,*,#217,.T.);
#267=ORIENTED_EDGE($,*,*,#218,.T.);
#268=ORIENTED_EDGE($,*,*,#219,.T.);
#269=ORIENTED_EDGE($,*,*,#220,.T.);
#270=ORIENTED_EDGE($,*,*,#221,.T.);
#271=ORIENTED_EDGE($,*,*,#216,.T.);
#272=ORIENTED_EDGE($,*,*,#212,.T.);
#273=ORIENTED_EDGE($,*,*,#222,.T.);
#274=ORIENTED_EDGE($,*,*,#197,.F.);
#275=ORIENTED_EDGE($,*,*,#203,.T.);
#276=ORIENTED_EDGE($,*,*,#223,.F.);
#277=ORIENTED_EDGE($,*,*,#210,.F.);
#278=ORIENTED_EDGE($,*,*,#211,.F.);
#279=ORIENTED_EDGE($,*,*,#223,.T.);
#280=ORIENTED_EDGE($,*,*,#224,.T.);
#281=ORIENTED_EDGE($,*,*,#225,.T.);
#282=ORIENTED_EDGE($,*,*,#222,.F.);
#283=ORIENTED_EDGE($,*,*,#226,.F.);
#284=ORIENTED_EDGE($,*,*,#227,.T.);
#285=ORIENTED_EDGE($,*,*,#228,.T.);
#286=ORIENTED_EDGE($,*,*,#213,.T.);
#287=ORIENTED_EDGE($,*,*,#221,.F.);
#288=ORIENTED_EDGE($,*,*,#205,.T.);
#289=ORIENTED_EDGE($,*,*,#214,.F.);
#290=ORIENTED_EDGE($,*,*,#228,.F.);
#291=ORIENTED_EDGE($,*,*,#225,.F.);
#292=ORIENTED_EDGE($,*,*,#229,.T.);
#293=ORIENTED_EDGE($,*,*,#230,.T.);
#294=ORIENTED_EDGE($,*,*,#231,.T.);
#295=ORIENTED_EDGE($,*,*,#217,.F.);
#296=ORIENTED_EDGE($,*,*,#231,.F.);
#297=ORIENTED_EDGE($,*,*,#232,.T.);
#298=ORIENTED_EDGE($,*,*,#233,.T.);
#299=ORIENTED_EDGE($,*,*,#234,.T.);
#300=ORIENTED_EDGE($,*,*,#218,.F.);
#301=ORIENTED_EDGE($,*,*,#234,.F.);
#302=ORIENTED_EDGE($,*,*,#235,.T.);
#303=ORIENTED_EDGE($,*,*,#236,.T.);
#304=ORIENTED_EDGE($,*,*,#237,.T.);
#305=ORIENTED_EDGE($,*,*,#219,.F.);
#306=ORIENTED_EDGE($,*,*,#237,.F.);
#307=ORIENTED_EDGE($,*,*,#238,.T.);
#308=ORIENTED_EDGE($,*,*,#239,.T.);
#309=ORIENTED_EDGE($,*,*,#226,.T.);
#310=ORIENTED_EDGE($,*,*,#220,.F.);
#311=ORIENTED_EDGE($,*,*,#229,.F.);
#312=ORIENTED_EDGE($,*,*,#224,.F.);
#313=ORIENTED_EDGE($,*,*,#202,.T.);
#314=ORIENTED_EDGE($,*,*,#239,.F.);
#315=ORIENTED_EDGE($,*,*,#206,.T.);
#316=ORIENTED_EDGE($,*,*,#227,.F.);
#317=ORIENTED_EDGE($,*,*,#230,.F.);
#318=ORIENTED_EDGE($,*,*,#201,.T.);
#319=ORIENTED_EDGE($,*,*,#232,.F.);
#320=ORIENTED_EDGE($,*,*,#233,.F.);
#321=ORIENTED_EDGE($,*,*,#200,.T.);
#322=ORIENTED_EDGE($,*,*,#235,.F.);
#323=ORIENTED_EDGE($,*,*,#236,.F.);
#324=ORIENTED_EDGE($,*,*,#207,.T.);
#325=ORIENTED_EDGE($,*,*,#238,.F.);
#326=ORIENTED_EDGE($,*,*,#199,.F.);
#327=ORIENTED_EDGE($,*,*,#196,.T.);
#328=ORIENTED_EDGE($,*,*,#198,.T.);
#329=ORIENTED_EDGE($,*,*,#195,.T.);
#330=CYLINDRICAL_SURFACE($,#358,16.);
#331=CYLINDRICAL_SURFACE($,#361,20.);
#332=CYLINDRICAL_SURFACE($,#364,21.);
#333=ADVANCED_FACE($,(#103,#97),#330,.F.);
#334=ADVANCED_FACE($,(#104,#98),#331,.T.);
#335=ADVANCED_FACE($,(#105,#99),#332,.T.);
#336=ADVANCED_FACE($,(#106),#76,.F.);
#337=ADVANCED_FACE($,(#107),#77,.F.);
#338=ADVANCED_FACE($,(#108),#78,.T.);
#339=ADVANCED_FACE($,(#109,#100),#79,.F.);
#340=ADVANCED_FACE($,(#110),#80,.T.);
#341=ADVANCED_FACE($,(#111),#81,.F.);
#342=ADVANCED_FACE($,(#112),#82,.F.);
#343=ADVANCED_FACE($,(#113),#83,.T.);
#344=ADVANCED_FACE($,(#114),#84,.F.);
#345=ADVANCED_FACE($,(#115),#85,.F.);
#346=ADVANCED_FACE($,(#116),#86,.F.);
#347=ADVANCED_FACE($,(#117),#87,.F.);
#348=ADVANCED_FACE($,(#118),#88,.T.);
#349=ADVANCED_FACE($,(#119),#89,.T.);
#350=ADVANCED_FACE($,(#120),#90,.T.);
#351=ADVANCED_FACE($,(#121),#91,.T.);
#352=ADVANCED_FACE($,(#122),#92,.T.);
#353=ADVANCED_FACE($,(#123,#101),#93,.F.);
#354=ADVANCED_FACE($,(#124,#102),#94,.T.);
#355=CLOSED_SHELL($,(#333,#334,#335,#336,#337,#338,#339,#340,#341,#342,
#343,#344,#345,#346,#347,#348,#349,#350,#351,#352,#353,#354));
#356=MANIFOLD_SOLID_BREP('44B',#355);
#357=AXIS2_PLACEMENT_3D('placement',#497,#393,#394);
#358=AXIS2_PLACEMENT_3D($,#498,#395,#396);
#359=AXIS2_PLACEMENT_3D($,#500,#397,#398);
#360=AXIS2_PLACEMENT_3D($,#502,#399,#400);
#361=AXIS2_PLACEMENT_3D($,#503,#401,#402);
#362=AXIS2_PLACEMENT_3D($,#505,#403,#404);
#363=AXIS2_PLACEMENT_3D($,#507,#405,#406);
#364=AXIS2_PLACEMENT_3D($,#508,#407,#408);
#365=AXIS2_PLACEMENT_3D($,#510,#409,#410);
#366=AXIS2_PLACEMENT_3D($,#513,#411,#412);
#367=AXIS2_PLACEMENT_3D($,#515,#413,#414);
#368=AXIS2_PLACEMENT_3D($,#517,#415,#416);
#369=AXIS2_PLACEMENT_3D($,#519,#417,#418);
#370=AXIS2_PLACEMENT_3D($,#521,#419,#420);
#371=AXIS2_PLACEMENT_3D($,#523,#421,#422);
#372=AXIS2_PLACEMENT_3D($,#525,#423,#424);
#373=AXIS2_PLACEMENT_3D($,#526,#425,#426);
#374=AXIS2_PLACEMENT_3D($,#527,#427,#428);
#375=AXIS2_PLACEMENT_3D($,#537,#434,#435);
#376=AXIS2_PLACEMENT_3D($,#544,#440,#441);
#377=AXIS2_PLACEMENT_3D($,#545,#442,#443);
#378=AXIS2_PLACEMENT_3D($,#557,#450,#451);
#379=AXIS2_PLACEMENT_3D($,#559,#453,#454);
#380=AXIS2_PLACEMENT_3D($,#563,#457,#458);
#381=AXIS2_PLACEMENT_3D($,#568,#462,#463);
#382=AXIS2_PLACEMENT_3D($,#569,#464,#465);
#383=AXIS2_PLACEMENT_3D($,#574,#469,#470);
#384=AXIS2_PLACEMENT_3D($,#579,#474,#475);
#385=AXIS2_PLACEMENT_3D($,#584,#479,#480);
#386=AXIS2_PLACEMENT_3D($,#587,#483,#484);
#387=AXIS2_PLACEMENT_3D($,#588,#485,#486);
#388=AXIS2_PLACEMENT_3D($,#589,#487,#488);
#389=AXIS2_PLACEMENT_3D($,#590,#489,#490);
#390=AXIS2_PLACEMENT_3D($,#591,#491,#492);
#391=AXIS2_PLACEMENT_3D($,#592,#493,#494);
#392=AXIS2_PLACEMENT_3D($,#593,#495,#496);
#393=DIRECTION('axis',(0.,0.,1.));
#394=DIRECTION('refdir',(1.,0.,0.));
#395=DIRECTION('center_axis',(0.,0.,1.));
#396=DIRECTION('ref_axis',(1.,0.,0.));
#397=DIRECTION('center_axis',(0.,0.,-1.));
#398=DIRECTION('ref_axis',(1.,0.,0.));
#399=DIRECTION('center_axis',(0.,0.,1.));
#400=DIRECTION('ref_axis',(1.,0.,0.));
#401=DIRECTION('center_axis',(0.,0.,1.));
#402=DIRECTION('ref_axis',(1.,0.,0.));
#403=DIRECTION('center_axis',(0.,0.,1.));
#404=DIRECTION('ref_axis',(1.,0.,0.));
#405=DIRECTION('center_axis',(0.,0.,1.));
#406=DIRECTION('ref_axis',(1.,0.,0.));
#407=DIRECTION('center_axis',(0.,0.,1.));
#408=DIRECTION('ref_axis',(1.,0.,0.));
#409=DIRECTION('center_axis',(0.,0.,1.));
#410=DIRECTION('ref_axis',(1.,0.,0.));
#411=DIRECTION('center_axis',(0.,0.,1.));
#412=DIRECTION('ref_axis',(1.,0.,0.));
#413=DIRECTION('center_axis',(0.,0.,1.));
#414=DIRECTION('ref_axis',(1.,0.,0.));
#415=DIRECTION('center_axis',(0.,0.,1.));
#416=DIRECTION('ref_axis',(1.,0.,0.));
#417=DIRECTION('center_axis',(0.,0.,1.));
#418=DIRECTION('ref_axis',(1.,0.,0.));
#419=DIRECTION('center_axis',(0.,0.,1.));
#420=DIRECTION('ref_axis',(1.,0.,0.));
#421=DIRECTION('center_axis',(0.,0.,1.));
#422=DIRECTION('ref_axis',(1.,0.,0.));
#423=DIRECTION('center_axis',(0.,0.,1.));
#424=DIRECTION('ref_axis',(1.,0.,0.));
#425=DIRECTION('center_axis',(0.,0.,1.));
#426=DIRECTION('ref_axis',(1.,0.,0.));
#427=DIRECTION('center_axis',(-1.,1.795862E-010,0.));
#428=DIRECTION('ref_axis',(0.,0.,1.));
#429=DIRECTION($,(0.,0.,1.));
#430=DIRECTION($,(1.347367E-010,1.,0.));
#431=DIRECTION($,(2.245216E-010,1.,0.));
#432=DIRECTION($,(0.,0.,1.));
#433=DIRECTION($,(1.796291E-010,1.,0.));
#434=DIRECTION('center_axis',(-0.707106781075048,0.707106781298047,0.));
#435=DIRECTION('ref_axis',(0.,0.,1.));
#436=DIRECTION($,(0.,0.,1.));
#437=DIRECTION($,(0.707106781281392,0.707106781091703,0.));
#438=DIRECTION($,(0.70710678131404,0.707106781059055,0.));
#439=DIRECTION($,(0.707106781297716,0.707106781075379,0.));
#440=DIRECTION('center_axis',(0.,0.,-1.));
#441=DIRECTION('ref_axis',(-1.,0.,0.));
#442=DIRECTION('center_axis',(0.,0.,-1.));
#443=DIRECTION('ref_axis',(-1.,0.,0.));
#444=DIRECTION($,(-1.,4.489309E-011,0.));
#445=DIRECTION($,(-0.707106781233883,-0.707106781139212,0.));
#446=DIRECTION($,(-9.024566E-011,-1.,0.));
#447=DIRECTION($,(0.707106781107396,-0.707106781265699,0.));
#448=DIRECTION($,(1.,-1.350814E-010,0.));
#449=DIRECTION($,(-0.707106781107195,0.707106781265901,0.));
#450=DIRECTION('center_axis',(0.,0.,-1.));
#451=DIRECTION('ref_axis',(-1.,0.,0.));
#452=DIRECTION($,(-0.707106781107222,0.707106781265873,0.));
#453=DIRECTION('center_axis',(-0.707106781266048,-0.707106781107048,0.));
#454=DIRECTION('ref_axis',(0.,0.,1.));
#455=DIRECTION($,(-0.707106781107167,0.707106781265928,0.));
#456=DIRECTION($,(0.,0.,1.));
#457=DIRECTION('center_axis',(1.346893E-010,1.,0.));
#458=DIRECTION('ref_axis',(0.,0.,1.));
#459=DIRECTION($,(0.,0.,1.));
#460=DIRECTION($,(1.,-1.126635E-010,0.));
#461=DIRECTION($,(1.,-1.574992E-010,0.));
#462=DIRECTION('center_axis',(0.,0.,-1.));
#463=DIRECTION('ref_axis',(-1.,0.,0.));
#464=DIRECTION('center_axis',(-4.489656E-011,-1.,0.));
#465=DIRECTION('ref_axis',(0.,0.,-1.));
#466=DIRECTION($,(-1.,2.241785E-011,0.));
#467=DIRECTION($,(-1.,6.736832E-011,0.));
#468=DIRECTION($,(0.,0.,1.));
#469=DIRECTION('center_axis',(0.707106781139048,-0.707106781234048,0.));
#470=DIRECTION('ref_axis',(0.,0.,-1.));
#471=DIRECTION($,(-0.707106781217932,-0.707106781155163,0.));
#472=DIRECTION($,(-0.707106781249834,-0.707106781123261,0.));
#473=DIRECTION($,(0.,0.,1.));
#474=DIRECTION('center_axis',(1.,-8.979292E-011,0.));
#475=DIRECTION('ref_axis',(0.,0.,-1.));
#476=DIRECTION($,(-6.782781E-011,-1.,0.));
#477=DIRECTION($,(-1.126635E-010,-1.,0.));
#478=DIRECTION($,(0.,0.,1.));
#479=DIRECTION('center_axis',(0.707106781266048,0.707106781107048,0.));
#480=DIRECTION('ref_axis',(0.,0.,-1.));
#481=DIRECTION($,(0.707106781135677,-0.707106781237418,0.));
#482=DIRECTION($,(0.707106781079114,-0.707106781293981,0.));
#483=DIRECTION('center_axis',(0.,0.,-1.));
#484=DIRECTION('ref_axis',(-1.,0.,0.));
#485=DIRECTION('center_axis',(0.,0.,-1.));
#486=DIRECTION('ref_axis',(-1.,0.,0.));
#487=DIRECTION('center_axis',(0.,0.,-1.));
#488=DIRECTION('ref_axis',(-1.,0.,0.));
#489=DIRECTION('center_axis',(0.,0.,-1.));
#490=DIRECTION('ref_axis',(-1.,0.,0.));
#491=DIRECTION('center_axis',(0.,0.,-1.));
#492=DIRECTION('ref_axis',(-1.,0.,0.));
#493=DIRECTION('center_axis',(0.,0.,1.));
#494=DIRECTION('ref_axis',(1.,0.,0.));
#495=DIRECTION('center_axis',(0.,0.,1.));
#496=DIRECTION('ref_axis',(1.,0.,0.));
#497=CARTESIAN_POINT('',(0.,0.,0.));
#498=CARTESIAN_POINT('Origin',(0.,0.,0.));
#499=CARTESIAN_POINT('',(-16.,-1.95937E-015,58.5));
#500=CARTESIAN_POINT('Origin',(0.,0.,58.5));
#501=CARTESIAN_POINT('',(-16.,-1.95937E-015,0.));
#502=CARTESIAN_POINT('Origin',(0.,0.,0.));
#503=CARTESIAN_POINT('Origin',(0.,0.,32.5));
#504=CARTESIAN_POINT('',(-20.,-2.449213E-015,32.5));
#505=CARTESIAN_POINT('Origin',(0.,0.,32.5));
#506=CARTESIAN_POINT('',(-20.,-2.449213E-015,58.5));
#507=CARTESIAN_POINT('Origin',(0.,0.,58.5));
#508=CARTESIAN_POINT('Origin',(0.,0.,0.));
#509=CARTESIAN_POINT('',(-21.,-2.571673E-015,0.));
#510=CARTESIAN_POINT('Origin',(0.,0.,0.));
#511=CARTESIAN_POINT('',(-14.84924232631,14.849242483795,21.4));
#512=CARTESIAN_POINT('',(-21.00000000019,6.744862E-009,21.4));
#513=CARTESIAN_POINT('Origin',(0.,0.,21.4));
#514=CARTESIAN_POINT('',(1.73039783E-007,21.000000000195,21.4));
#515=CARTESIAN_POINT('Origin',(0.,0.,21.4));
#516=CARTESIAN_POINT('',(14.849332966733,14.849151842549,21.4));
#517=CARTESIAN_POINT('Origin',(0.,0.,21.4));
#518=CARTESIAN_POINT('',(21.,-5.143347E-015,21.4));
#519=CARTESIAN_POINT('Origin',(0.,0.,21.4));
#520=CARTESIAN_POINT('',(14.849242466562,-14.84924234354,21.4));
#521=CARTESIAN_POINT('Origin',(0.,0.,21.4));
#522=CARTESIAN_POINT('',(-2.426839E-009,-21.00000000019,21.4));
#523=CARTESIAN_POINT('Origin',(0.,0.,21.4));
#524=CARTESIAN_POINT('',(-14.84916437838,-14.84932043151,21.4));
#525=CARTESIAN_POINT('Origin',(0.,0.,21.4));
#526=CARTESIAN_POINT('Origin',(0.,0.,21.4));
#527=CARTESIAN_POINT('Origin',(20.999999998828,-8.698484813492,21.4));
#528=CARTESIAN_POINT('',(20.999999998828,-8.698484813492,21.4));
#529=CARTESIAN_POINT('',(20.999999998828,-8.698484813492,32.5));
#530=CARTESIAN_POINT($,(20.999999998828,-8.698484813492,21.4));
#531=CARTESIAN_POINT($,(20.999999998828,-8.698484813492,21.4));
#532=CARTESIAN_POINT('',(21.000000001953,8.698484805949,21.4));
#533=CARTESIAN_POINT($,(21.,-5.143347E-015,21.4));
#534=CARTESIAN_POINT('',(21.000000001953,8.698484805949,32.5));
#535=CARTESIAN_POINT($,(21.000000001953,8.698484805949,21.4));
#536=CARTESIAN_POINT($,(20.999999998828,-8.698484813492,32.5));
#537=CARTESIAN_POINT('Origin',(8.698484806892,-21.00000000156,21.4));
#538=CARTESIAN_POINT('',(8.698484806892,-21.00000000156,21.4));
#539=CARTESIAN_POINT('',(8.698484806892,-21.00000000156,32.5));
#540=CARTESIAN_POINT($,(8.698484806892,-21.00000000156,21.4));
#541=CARTESIAN_POINT($,(8.698484806892,-21.00000000156,21.4));
#542=CARTESIAN_POINT($,(14.849242466562,-14.84924234354,21.4));
#543=CARTESIAN_POINT($,(8.698484806892,-21.00000000156,32.5));
#544=CARTESIAN_POINT('Origin',(8.698484810663,21.,21.4));
#545=CARTESIAN_POINT('Origin',(8.698484810663,21.,32.5));
#546=CARTESIAN_POINT('',(8.698484810663,21.,32.5));
#547=CARTESIAN_POINT('',(-8.698484808778,21.000000000781,32.5));
#548=CARTESIAN_POINT($,(8.698484810663,21.,32.5));
#549=CARTESIAN_POINT('',(-20.9999999996,8.698484811606,32.5));
#550=CARTESIAN_POINT($,(-8.698484808778,21.000000000781,32.5));
#551=CARTESIAN_POINT('',(-21.00000000117,-8.698484807835,32.5));
#552=CARTESIAN_POINT($,(-20.9999999996,8.698484811606,32.5));
#553=CARTESIAN_POINT('',(-8.698484812549,-20.99999999921,32.5));
#554=CARTESIAN_POINT($,(-21.00000000117,-8.698484807835,32.5));
#555=CARTESIAN_POINT($,(-8.698484812549,-20.99999999921,32.5));
#556=CARTESIAN_POINT($,(21.000000001953,8.698484805949,32.5));
#557=CARTESIAN_POINT('Origin',(8.698484810663,21.,21.4));
#558=CARTESIAN_POINT($,(21.000000001953,8.698484805949,21.4));
#559=CARTESIAN_POINT('Origin',(21.000000001953,8.698484805949,21.4));
#560=CARTESIAN_POINT('',(8.698484810663,21.,21.4));
#561=CARTESIAN_POINT($,(14.849332966733,14.849151842549,21.4));
#562=CARTESIAN_POINT($,(8.698484810663,21.,21.4));
#563=CARTESIAN_POINT('Origin',(-8.698484812549,-20.99999999921,21.4));
#564=CARTESIAN_POINT('',(-8.698484812549,-20.99999999921,21.4));
#565=CARTESIAN_POINT($,(-8.698484812549,-20.99999999921,21.4));
#566=CARTESIAN_POINT($,(-8.698484812549,-20.99999999921,21.4));
#567=CARTESIAN_POINT($,(-2.426839E-009,-21.00000000019,21.4));
#568=CARTESIAN_POINT('Origin',(8.698484810663,21.,21.4));
#569=CARTESIAN_POINT('Origin',(8.698484810663,21.,21.4));
#570=CARTESIAN_POINT($,(8.698484810663,21.,21.4));
#571=CARTESIAN_POINT('',(-8.698484808778,21.000000000781,21.4));
#572=CARTESIAN_POINT($,(1.73039783E-007,21.000000000195,21.4));
#573=CARTESIAN_POINT($,(-8.698484808778,21.000000000781,21.4));
#574=CARTESIAN_POINT('Origin',(-8.698484808778,21.000000000781,21.4));
#575=CARTESIAN_POINT($,(-8.698484808778,21.000000000781,21.4));
#576=CARTESIAN_POINT('',(-20.9999999996,8.698484811606,21.4));
#577=CARTESIAN_POINT($,(-14.84924232631,14.849242483795,21.4));
#578=CARTESIAN_POINT($,(-20.9999999996,8.698484811606,21.4));
#579=CARTESIAN_POINT('Origin',(-20.9999999996,8.698484811606,21.4));
#580=CARTESIAN_POINT($,(-20.9999999996,8.698484811606,21.4));
#581=CARTESIAN_POINT('',(-21.00000000117,-8.698484807835,21.4));
#582=CARTESIAN_POINT($,(-21.00000000019,6.744862E-009,21.4));
#583=CARTESIAN_POINT($,(-21.00000000117,-8.698484807835,21.4));
#584=CARTESIAN_POINT('Origin',(-21.00000000117,-8.698484807835,21.4));
#585=CARTESIAN_POINT($,(-21.00000000117,-8.698484807835,21.4));
#586=CARTESIAN_POINT($,(-14.84916437838,-14.84932043151,21.4));
#587=CARTESIAN_POINT('Origin',(8.698484810663,21.,21.4));
#588=CARTESIAN_POINT('Origin',(8.698484810663,21.,21.4));
#589=CARTESIAN_POINT('Origin',(8.698484810663,21.,21.4));
#590=CARTESIAN_POINT('Origin',(8.698484810663,21.,21.4));
#591=CARTESIAN_POINT('Origin',(8.698484810663,21.,21.4));
#592=CARTESIAN_POINT('Origin',(0.,0.,0.));
#593=CARTESIAN_POINT('Origin',(0.,0.,58.5));
#594=UNCERTAINTY_MEASURE_WITH_UNIT(LENGTH_MEASURE(0.01),#596,
'DISTANCE_ACCURACY_VALUE',
'Maximum model space distance between geometric entities at asserted c
onnectivities');
#595=(
GEOMETRIC_REPRESENTATION_CONTEXT(3)
GLOBAL_UNCERTAINTY_ASSIGNED_CONTEXT((#594))
GLOBAL_UNIT_ASSIGNED_CONTEXT((#596,#599,#597))
REPRESENTATION_CONTEXT('','3D')
);
#596=(
LENGTH_UNIT()
NAMED_UNIT(*)
SI_UNIT(.MILLI.,.METRE.)
);
#597=(
NAMED_UNIT(*)
SI_UNIT($,.STERADIAN.)
SOLID_ANGLE_UNIT()
);
#598=DIMENSIONAL_EXPONENTS(0.,0.,0.,0.,0.,0.,0.);
#599=(
CONVERSION_BASED_UNIT('degree',#601)
NAMED_UNIT(#598)
PLANE_ANGLE_UNIT()
);
#600=(
NAMED_UNIT(*)
PLANE_ANGLE_UNIT()
SI_UNIT($,.RADIAN.)
);
#601=PLANE_ANGLE_MEASURE_WITH_UNIT(PLANE_ANGLE_MEASURE(0.01745329252),#600);
#602=SHAPE_DEFINITION_REPRESENTATION(#603,#604);
#603=PRODUCT_DEFINITION_SHAPE('',$,#606);
#604=SHAPE_REPRESENTATION('',(#357),#595);
#605=PRODUCT_DEFINITION_CONTEXT('3D Mechanical Parts',#609,'design');
#606=PRODUCT_DEFINITION('KIFV040032114','KIFV040032114',#607,#605);
#607=PRODUCT_DEFINITION_FORMATION('',$,#611);
#608=APPLICATION_PROTOCOL_DEFINITION('international standard',
'automotive_design',2009,#609);
#609=APPLICATION_CONTEXT(
'Core Data for Automotive Mechanical Design Process');
#610=PRODUCT_CONTEXT('3D Mechanical Parts',#609,'mechanical');
#611=PRODUCT('KIFV040032114','KIFV040032114',$,(#610));
#612=PRESENTATION_STYLE_ASSIGNMENT((#614));
#613=PRESENTATION_STYLE_ASSIGNMENT((#615));
#614=SURFACE_STYLE_USAGE(.BOTH.,#616);
#615=SURFACE_STYLE_USAGE(.BOTH.,#617);
#616=SURFACE_SIDE_STYLE($,(#618));
#617=SURFACE_SIDE_STYLE($,(#619));
#618=SURFACE_STYLE_FILL_AREA(#620);
#619=SURFACE_STYLE_FILL_AREA(#621);
#620=FILL_AREA_STYLE($,(#622));
#621=FILL_AREA_STYLE($,(#623));
#622=FILL_AREA_STYLE_COLOUR($,#624);
#623=FILL_AREA_STYLE_COLOUR($,#625);
#624=COLOUR_RGB('',0.509803921568627,0.509803921568627,0.588235294117647);
#625=COLOUR_RGB('',1.,0.,0.);
ENDSEC;
END-ISO-10303-21;
