ISO-10303-21;
HEADER;
FILE_DESCRIPTION( ( 'STEP AP214' ), '1' );
FILE_NAME( 'p:/temp/worker_14/temp/exporttempdir_3348_466_VTNWP/format_0/22054002507(architecture400).stp', '2021-11-17T10:06:49', ( 'License CC BY-ND 4.0' ), ( 'CADENAS' ), ' ', 'PARTsolutions', ' ' );
FILE_SCHEMA( ( 'AUTOMOTIVE_DESIGN { 1 0 10303 214 1 1 1 1 }' ) );
ENDSEC;
DATA;
#1 = MECHANICAL_DESIGN_GEOMETRIC_PRESENTATION_REPRESENTATION( ' ', ( #10, #11, #12, #13, #14, #15, #16, #17, #18 ), #6 );
#2 = PRODUCT_DEFINITION_CONTEXT( '', #19, 'design' );
#3 = APPLICATION_PROTOCOL_DEFINITION( 'international standard', 'automotive_design', 2001, #19 );
#4 = PRODUCT_CATEGORY_RELATIONSHIP( 'NONE', 'NONE', #20, #21 );
#5 = SHAPE_DEFINITION_REPRESENTATION( #22, #23 );
#6 =  ( GEOMETRIC_REPRESENTATION_CONTEXT( 3 )GLOBAL_UNCERTAINTY_ASSIGNED_CONTEXT( ( #26 ) )GLOBAL_UNIT_ASSIGNED_CONTEXT( ( #28, #29, #30 ) )REPRESENTATION_CONTEXT( 'NONE', 'WORKSPACE' ) );
#10 = STYLED_ITEM( '', ( #32 ), #33 );
#11 = STYLED_ITEM( '', ( #34 ), #35 );
#12 = STYLED_ITEM( '', ( #36 ), #37 );
#13 = STYLED_ITEM( '', ( #38 ), #39 );
#14 = STYLED_ITEM( '', ( #40 ), #41 );
#15 = STYLED_ITEM( '', ( #42 ), #43 );
#16 = STYLED_ITEM( '', ( #44 ), #45 );
#17 = STYLED_ITEM( '', ( #46 ), #47 );
#18 = STYLED_ITEM( '', ( #48 ), #49 );
#19 = APPLICATION_CONTEXT( 'core data for automotive mechanical design processes' );
#20 = PRODUCT_CATEGORY( 'part', 'NONE' );
#21 = PRODUCT_RELATED_PRODUCT_CATEGORY( 'detail', ' ', ( #50 ) );
#22 = PRODUCT_DEFINITION_SHAPE( 'NONE', 'NONE', #51 );
#23 = ADVANCED_BREP_SHAPE_REPRESENTATION( '_22054002507(architecture400)', ( #52, #53 ), #6 );
#26 = UNCERTAINTY_MEASURE_WITH_UNIT( LENGTH_MEASURE( 0.00100000000000000 ), #28, '', '' );
#28 =  ( CONVERSION_BASED_UNIT( 'MILLIMETRE', #56 )LENGTH_UNIT(  )NAMED_UNIT( #59 ) );
#29 =  ( NAMED_UNIT( #61 )PLANE_ANGLE_UNIT(  )SI_UNIT( $, .RADIAN. ) );
#30 =  ( NAMED_UNIT( #61 )SI_UNIT( $, .STERADIAN. )SOLID_ANGLE_UNIT(  ) );
#32 = PRESENTATION_STYLE_ASSIGNMENT( ( #67 ) );
#33 = ADVANCED_FACE( '', ( #68, #69 ), #70, .F. );
#34 = PRESENTATION_STYLE_ASSIGNMENT( ( #71 ) );
#35 = ADVANCED_FACE( '', ( #72, #73 ), #74, .F. );
#36 = PRESENTATION_STYLE_ASSIGNMENT( ( #75 ) );
#37 = ADVANCED_FACE( '', ( #76, #77 ), #78, .T. );
#38 = PRESENTATION_STYLE_ASSIGNMENT( ( #79 ) );
#39 = ADVANCED_FACE( '', ( #80, #81 ), #82, .F. );
#40 = PRESENTATION_STYLE_ASSIGNMENT( ( #83 ) );
#41 = ADVANCED_FACE( '', ( #84, #85 ), #86, .F. );
#42 = PRESENTATION_STYLE_ASSIGNMENT( ( #87 ) );
#43 = ADVANCED_FACE( '', ( #88, #89 ), #90, .T. );
#44 = PRESENTATION_STYLE_ASSIGNMENT( ( #91 ) );
#45 = ADVANCED_FACE( '', ( #92, #93 ), #94, .F. );
#46 = PRESENTATION_STYLE_ASSIGNMENT( ( #95 ) );
#47 = ADVANCED_FACE( '', ( #96, #97 ), #98, .F. );
#48 = PRESENTATION_STYLE_ASSIGNMENT( ( #99 ) );
#49 = ADVANCED_FACE( '', ( #100, #101 ), #102, .T. );
#50 = PRODUCT( '_22054002507(architecture400)', '_22054002507(architecture400)', 'PART-_22054002507(architecture400)-DESC', ( #103 ) );
#51 = PRODUCT_DEFINITION( 'NONE', 'NONE', #104, #2 );
#52 = MANIFOLD_SOLID_BREP( '_22054002507(architecture400)', #105 );
#53 = AXIS2_PLACEMENT_3D( '', #106, #107, #108 );
#56 = LENGTH_MEASURE_WITH_UNIT( LENGTH_MEASURE( 1.00000000000000 ), #109 );
#59 = DIMENSIONAL_EXPONENTS( 1.00000000000000, 0.000000000000000, 0.000000000000000, 0.000000000000000, 0.000000000000000, 0.000000000000000, 0.000000000000000 );
#61 = DIMENSIONAL_EXPONENTS( 0.000000000000000, 0.000000000000000, 0.000000000000000, 0.000000000000000, 0.000000000000000, 0.000000000000000, 0.000000000000000 );
#67 = SURFACE_STYLE_USAGE( .BOTH., #110 );
#68 = FACE_OUTER_BOUND( '', #111, .T. );
#69 = FACE_OUTER_BOUND( '', #112, .T. );
#70 = TOROIDAL_SURFACE( '', #113, 8.33333333330000, 2.50000000000000 );
#71 = SURFACE_STYLE_USAGE( .BOTH., #114 );
#72 = FACE_BOUND( '', #115, .T. );
#73 = FACE_OUTER_BOUND( '', #116, .T. );
#74 = PLANE( '', #117 );
#75 = SURFACE_STYLE_USAGE( .BOTH., #118 );
#76 = FACE_OUTER_BOUND( '', #119, .T. );
#77 = FACE_OUTER_BOUND( '', #120, .T. );
#78 = CYLINDRICAL_SURFACE( '', #121, 17.5000000000000 );
#79 = SURFACE_STYLE_USAGE( .BOTH., #122 );
#80 = FACE_OUTER_BOUND( '', #123, .T. );
#81 = FACE_OUTER_BOUND( '', #124, .T. );
#82 = CYLINDRICAL_SURFACE( '', #125, 12.5000000000000 );
#83 = SURFACE_STYLE_USAGE( .BOTH., #126 );
#84 = FACE_BOUND( '', #127, .T. );
#85 = FACE_OUTER_BOUND( '', #128, .T. );
#86 = PLANE( '', #129 );
#87 = SURFACE_STYLE_USAGE( .BOTH., #130 );
#88 = FACE_OUTER_BOUND( '', #131, .T. );
#89 = FACE_OUTER_BOUND( '', #132, .T. );
#90 = TOROIDAL_SURFACE( '', #133, 12.5000000000000, 5.00000000000000 );
#91 = SURFACE_STYLE_USAGE( .BOTH., #134 );
#92 = FACE_BOUND( '', #135, .T. );
#93 = FACE_OUTER_BOUND( '', #136, .T. );
#94 = SPHERICAL_SURFACE( '', #137, 30.0000000000000 );
#95 = SURFACE_STYLE_USAGE( .BOTH., #138 );
#96 = FACE_OUTER_BOUND( '', #139, .T. );
#97 = FACE_OUTER_BOUND( '', #140, .T. );
#98 = CYLINDRICAL_SURFACE( '', #141, 10.8333333333000 );
#99 = SURFACE_STYLE_USAGE( .BOTH., #142 );
#100 = FACE_BOUND( '', #143, .T. );
#101 = FACE_OUTER_BOUND( '', #144, .T. );
#102 = SPHERICAL_SURFACE( '', #145, 35.0000000000000 );
#103 = PRODUCT_CONTEXT( '', #19, 'mechanical' );
#104 = PRODUCT_DEFINITION_FORMATION_WITH_SPECIFIED_SOURCE( ' ', 'NONE', #50, .NOT_KNOWN. );
#105 = CLOSED_SHELL( '', ( #33, #47, #41, #39, #35, #37, #43, #49, #45 ) );
#106 = CARTESIAN_POINT( '', ( 0.000000000000000, 0.000000000000000, 0.000000000000000 ) );
#107 = DIRECTION( '', ( 0.000000000000000, 0.000000000000000, 1.00000000000000 ) );
#108 = DIRECTION( '', ( 1.00000000000000, 0.000000000000000, 0.000000000000000 ) );
#109 =  ( LENGTH_UNIT(  )NAMED_UNIT( #59 )SI_UNIT( .MILLI., .METRE. ) );
#110 = SURFACE_SIDE_STYLE( '', ( #147 ) );
#111 = EDGE_LOOP( '', ( #148 ) );
#112 = EDGE_LOOP( '', ( #149 ) );
#113 = AXIS2_PLACEMENT_3D( '', #150, #151, #152 );
#114 = SURFACE_SIDE_STYLE( '', ( #153 ) );
#115 = EDGE_LOOP( '', ( #154 ) );
#116 = EDGE_LOOP( '', ( #155 ) );
#117 = AXIS2_PLACEMENT_3D( '', #156, #157, #158 );
#118 = SURFACE_SIDE_STYLE( '', ( #159 ) );
#119 = EDGE_LOOP( '', ( #160 ) );
#120 = EDGE_LOOP( '', ( #161 ) );
#121 = AXIS2_PLACEMENT_3D( '', #162, #163, #164 );
#122 = SURFACE_SIDE_STYLE( '', ( #165 ) );
#123 = EDGE_LOOP( '', ( #166 ) );
#124 = EDGE_LOOP( '', ( #167 ) );
#125 = AXIS2_PLACEMENT_3D( '', #168, #169, #170 );
#126 = SURFACE_SIDE_STYLE( '', ( #171 ) );
#127 = EDGE_LOOP( '', ( #172 ) );
#128 = EDGE_LOOP( '', ( #173 ) );
#129 = AXIS2_PLACEMENT_3D( '', #174, #175, #176 );
#130 = SURFACE_SIDE_STYLE( '', ( #177 ) );
#131 = EDGE_LOOP( '', ( #178 ) );
#132 = EDGE_LOOP( '', ( #179 ) );
#133 = AXIS2_PLACEMENT_3D( '', #180, #181, #182 );
#134 = SURFACE_SIDE_STYLE( '', ( #183 ) );
#135 = VERTEX_LOOP( '', #184 );
#136 = EDGE_LOOP( '', ( #185 ) );
#137 = AXIS2_PLACEMENT_3D( '', #186, #187, #188 );
#138 = SURFACE_SIDE_STYLE( '', ( #189 ) );
#139 = EDGE_LOOP( '', ( #190 ) );
#140 = EDGE_LOOP( '', ( #191 ) );
#141 = AXIS2_PLACEMENT_3D( '', #192, #193, #194 );
#142 = SURFACE_SIDE_STYLE( '', ( #195 ) );
#143 = VERTEX_LOOP( '', #196 );
#144 = EDGE_LOOP( '', ( #197 ) );
#145 = AXIS2_PLACEMENT_3D( '', #198, #199, #200 );
#147 = SURFACE_STYLE_FILL_AREA( #201 );
#148 = ORIENTED_EDGE( '', *, *, #202, .F. );
#149 = ORIENTED_EDGE( '', *, *, #203, .T. );
#150 = CARTESIAN_POINT( '', ( -1.70697532252731, 0.000000000000000, 0.000000000000000 ) );
#151 = DIRECTION( '', ( 1.00000000000000, 0.000000000000000, -0.000000000000000 ) );
#152 = DIRECTION( '', ( -0.000000000000000, 0.000000000000000, -1.00000000000000 ) );
#153 = SURFACE_STYLE_FILL_AREA( #204 );
#154 = ORIENTED_EDGE( '', *, *, #205, .F. );
#155 = ORIENTED_EDGE( '', *, *, #206, .T. );
#156 = CARTESIAN_POINT( '', ( 16.3333333333333, 17.5000000000000, 0.000000000000000 ) );
#157 = DIRECTION( '', ( -1.00000000000000, 0.000000000000000, 0.000000000000000 ) );
#158 = DIRECTION( '', ( 0.000000000000000, 0.000000000000000, 1.00000000000000 ) );
#159 = SURFACE_STYLE_FILL_AREA( #207 );
#160 = ORIENTED_EDGE( '', *, *, #206, .F. );
#161 = ORIENTED_EDGE( '', *, *, #208, .T. );
#162 = CARTESIAN_POINT( '', ( -5.50000000000000, 0.000000000000000, 0.000000000000000 ) );
#163 = DIRECTION( '', ( -1.00000000000000, -0.000000000000000, 0.000000000000000 ) );
#164 = DIRECTION( '', ( -0.000000000000000, 0.000000000000000, -1.00000000000000 ) );
#165 = SURFACE_STYLE_FILL_AREA( #209 );
#166 = ORIENTED_EDGE( '', *, *, #210, .F. );
#167 = ORIENTED_EDGE( '', *, *, #205, .T. );
#168 = CARTESIAN_POINT( '', ( -5.50000000000000, 0.000000000000000, 0.000000000000000 ) );
#169 = DIRECTION( '', ( -1.00000000000000, -0.000000000000000, 0.000000000000000 ) );
#170 = DIRECTION( '', ( -0.000000000000000, 0.000000000000000, -1.00000000000000 ) );
#171 = SURFACE_STYLE_FILL_AREA( #211 );
#172 = ORIENTED_EDGE( '', *, *, #212, .F. );
#173 = ORIENTED_EDGE( '', *, *, #210, .T. );
#174 = CARTESIAN_POINT( '', ( 0.000000000000000, 12.5000000000000, 0.000000000000000 ) );
#175 = DIRECTION( '', ( -1.00000000000000, 0.000000000000000, 0.000000000000000 ) );
#176 = DIRECTION( '', ( 0.000000000000000, 0.000000000000000, 1.00000000000000 ) );
#177 = SURFACE_STYLE_FILL_AREA( #213 );
#178 = ORIENTED_EDGE( '', *, *, #214, .T. );
#179 = ORIENTED_EDGE( '', *, *, #208, .F. );
#180 = CARTESIAN_POINT( '', ( -2.77178028658932, 0.000000000000000, 0.000000000000000 ) );
#181 = DIRECTION( '', ( 1.00000000000000, 0.000000000000000, -0.000000000000000 ) );
#182 = DIRECTION( '', ( -0.000000000000000, 0.000000000000000, -1.00000000000000 ) );
#183 = SURFACE_STYLE_FILL_AREA( #215 );
#184 = VERTEX_POINT( '', #216 );
#185 = ORIENTED_EDGE( '', *, *, #202, .T. );
#186 = CARTESIAN_POINT( '', ( 24.5000000000001, -1.04083408558608E-14, 0.000000000000000 ) );
#187 = DIRECTION( '', ( 1.00000000000000, 0.000000000000000, 0.000000000000000 ) );
#188 = DIRECTION( '', ( 0.000000000000000, 1.00000000000000, 0.000000000000000 ) );
#189 = SURFACE_STYLE_FILL_AREA( #217 );
#190 = ORIENTED_EDGE( '', *, *, #203, .F. );
#191 = ORIENTED_EDGE( '', *, *, #212, .T. );
#192 = CARTESIAN_POINT( '', ( -5.50000000000000, 0.000000000000000, 0.000000000000000 ) );
#193 = DIRECTION( '', ( -1.00000000000000, -0.000000000000000, 0.000000000000000 ) );
#194 = DIRECTION( '', ( -0.000000000000000, 0.000000000000000, -1.00000000000000 ) );
#195 = SURFACE_STYLE_FILL_AREA( #218 );
#196 = VERTEX_POINT( '', #219 );
#197 = ORIENTED_EDGE( '', *, *, #214, .F. );
#198 = CARTESIAN_POINT( '', ( 24.4999999999998, 3.29597460435593E-14, 0.000000000000000 ) );
#199 = DIRECTION( '', ( 1.00000000000000, 0.000000000000000, 0.000000000000000 ) );
#200 = DIRECTION( '', ( 0.000000000000000, 1.00000000000000, 0.000000000000000 ) );
#201 = FILL_AREA_STYLE( '', ( #220 ) );
#202 = EDGE_CURVE( '', #221, #221, #222, .T. );
#203 = EDGE_CURVE( '', #223, #223, #224, .T. );
#204 = FILL_AREA_STYLE( '', ( #225 ) );
#205 = EDGE_CURVE( '', #226, #226, #227, .T. );
#206 = EDGE_CURVE( '', #228, #228, #229, .T. );
#207 = FILL_AREA_STYLE( '', ( #230 ) );
#208 = EDGE_CURVE( '', #231, #231, #232, .T. );
#209 = FILL_AREA_STYLE( '', ( #233 ) );
#210 = EDGE_CURVE( '', #234, #234, #235, .T. );
#211 = FILL_AREA_STYLE( '', ( #236 ) );
#212 = EDGE_CURVE( '', #237, #237, #238, .T. );
#213 = FILL_AREA_STYLE( '', ( #239 ) );
#214 = EDGE_CURVE( '', #240, #240, #241, .T. );
#215 = FILL_AREA_STYLE( '', ( #242 ) );
#216 = CARTESIAN_POINT( '', ( -5.50000000000000, -8.57137065713981E-15, 0.000000000000000 ) );
#217 = FILL_AREA_STYLE( '', ( #243 ) );
#218 = FILL_AREA_STYLE( '', ( #244 ) );
#219 = CARTESIAN_POINT( '', ( -10.5000000000000, 3.51028779420672E-14, 0.000000000000000 ) );
#220 = FILL_AREA_STYLE_COLOUR( '', #245 );
#221 = VERTEX_POINT( '', #246 );
#222 = CIRCLE( '', #247, 9.09090909090000 );
#223 = VERTEX_POINT( '', #248 );
#224 = CIRCLE( '', #249, 10.8333333333000 );
#225 = FILL_AREA_STYLE_COLOUR( '', #250 );
#226 = VERTEX_POINT( '', #251 );
#227 = CIRCLE( '', #252, 12.5000000000000 );
#228 = VERTEX_POINT( '', #253 );
#229 = CIRCLE( '', #254, 17.5000000000000 );
#230 = FILL_AREA_STYLE_COLOUR( '', #255 );
#231 = VERTEX_POINT( '', #256 );
#232 = CIRCLE( '', #257, 17.5000000000000 );
#233 = FILL_AREA_STYLE_COLOUR( '', #258 );
#234 = VERTEX_POINT( '', #259 );
#235 = CIRCLE( '', #260, 12.5000000000000 );
#236 = FILL_AREA_STYLE_COLOUR( '', #261 );
#237 = VERTEX_POINT( '', #262 );
#238 = CIRCLE( '', #263, 10.8333333333000 );
#239 = FILL_AREA_STYLE_COLOUR( '', #264 );
#240 = VERTEX_POINT( '', #265 );
#241 = CIRCLE( '', #266, 14.5833339464000 );
#242 = FILL_AREA_STYLE_COLOUR( '', #267 );
#243 = FILL_AREA_STYLE_COLOUR( '', #268 );
#244 = FILL_AREA_STYLE_COLOUR( '', #269 );
#245 = COLOUR_RGB( '', 0.689999997600000, 0.689999997600000, 0.689999997600000 );
#246 = CARTESIAN_POINT( '', ( -4.08942762457525, 0.000000000000000, -9.09090909090909 ) );
#247 = AXIS2_PLACEMENT_3D( '', #270, #271, #272 );
#248 = CARTESIAN_POINT( '', ( -1.70697532252731, 0.000000000000000, -10.8333333333333 ) );
#249 = AXIS2_PLACEMENT_3D( '', #273, #274, #275 );
#250 = COLOUR_RGB( '', 0.689999997600000, 0.689999997600000, 0.689999997600000 );
#251 = CARTESIAN_POINT( '', ( 16.3333333333333, 0.000000000000000, -12.5000000000000 ) );
#252 = AXIS2_PLACEMENT_3D( '', #276, #277, #278 );
#253 = CARTESIAN_POINT( '', ( 16.3333333333333, 0.000000000000000, -17.5000000000000 ) );
#254 = AXIS2_PLACEMENT_3D( '', #279, #280, #281 );
#255 = COLOUR_RGB( '', 0.689999997600000, 0.689999997600000, 0.689999997600000 );
#256 = CARTESIAN_POINT( '', ( -2.77178028658929, 0.000000000000000, -17.5000000000000 ) );
#257 = AXIS2_PLACEMENT_3D( '', #282, #283, #284 );
#258 = COLOUR_RGB( '', 0.689999997600000, 0.689999997600000, 0.689999997600000 );
#259 = CARTESIAN_POINT( '', ( 0.000000000000000, 0.000000000000000, -12.5000000000000 ) );
#260 = AXIS2_PLACEMENT_3D( '', #285, #286, #287 );
#261 = COLOUR_RGB( '', 0.689999997600000, 0.689999997600000, 0.689999997600000 );
#262 = CARTESIAN_POINT( '', ( 0.000000000000000, 0.000000000000000, -10.8333333333333 ) );
#263 = AXIS2_PLACEMENT_3D( '', #288, #289, #290 );
#264 = COLOUR_RGB( '', 0.689999997600000, 0.689999997600000, 0.689999997600000 );
#265 = CARTESIAN_POINT( '', ( -7.31707672004183, 0.000000000000000, -14.5833339463571 ) );
#266 = AXIS2_PLACEMENT_3D( '', #291, #292, #293 );
#267 = COLOUR_RGB( '', 0.689999997600000, 0.689999997600000, 0.689999997600000 );
#268 = COLOUR_RGB( '', 0.689999997600000, 0.689999997600000, 0.689999997600000 );
#269 = COLOUR_RGB( '', 0.689999997600000, 0.689999997600000, 0.689999997600000 );
#270 = CARTESIAN_POINT( '', ( -4.08942762457525, 0.000000000000000, 0.000000000000000 ) );
#271 = DIRECTION( '', ( 1.00000000000000, 0.000000000000000, -0.000000000000000 ) );
#272 = DIRECTION( '', ( -0.000000000000000, 0.000000000000000, -1.00000000000000 ) );
#273 = CARTESIAN_POINT( '', ( -1.70697532252731, 0.000000000000000, 0.000000000000000 ) );
#274 = DIRECTION( '', ( 1.00000000000000, 0.000000000000000, -0.000000000000000 ) );
#275 = DIRECTION( '', ( -0.000000000000000, 0.000000000000000, -1.00000000000000 ) );
#276 = CARTESIAN_POINT( '', ( 16.3333333333333, 0.000000000000000, 0.000000000000000 ) );
#277 = DIRECTION( '', ( 1.00000000000000, 0.000000000000000, -0.000000000000000 ) );
#278 = DIRECTION( '', ( -0.000000000000000, 0.000000000000000, -1.00000000000000 ) );
#279 = CARTESIAN_POINT( '', ( 16.3333333333333, 0.000000000000000, 0.000000000000000 ) );
#280 = DIRECTION( '', ( 1.00000000000000, 0.000000000000000, -0.000000000000000 ) );
#281 = DIRECTION( '', ( -0.000000000000000, 0.000000000000000, -1.00000000000000 ) );
#282 = CARTESIAN_POINT( '', ( -2.77178028658929, 0.000000000000000, 0.000000000000000 ) );
#283 = DIRECTION( '', ( 1.00000000000000, 0.000000000000000, -0.000000000000000 ) );
#284 = DIRECTION( '', ( -0.000000000000000, 0.000000000000000, -1.00000000000000 ) );
#285 = CARTESIAN_POINT( '', ( 0.000000000000000, 0.000000000000000, 0.000000000000000 ) );
#286 = DIRECTION( '', ( 1.00000000000000, 0.000000000000000, -0.000000000000000 ) );
#287 = DIRECTION( '', ( -0.000000000000000, 0.000000000000000, -1.00000000000000 ) );
#288 = CARTESIAN_POINT( '', ( 0.000000000000000, 0.000000000000000, 0.000000000000000 ) );
#289 = DIRECTION( '', ( 1.00000000000000, 0.000000000000000, -0.000000000000000 ) );
#290 = DIRECTION( '', ( -0.000000000000000, 0.000000000000000, -1.00000000000000 ) );
#291 = CARTESIAN_POINT( '', ( -7.31707672004183, 0.000000000000000, 0.000000000000000 ) );
#292 = DIRECTION( '', ( 1.00000000000000, 0.000000000000000, -0.000000000000000 ) );
#293 = DIRECTION( '', ( -0.000000000000000, 0.000000000000000, -1.00000000000000 ) );
ENDSEC;
END-ISO-10303-21;
