ISO-10303-21;
HEADER;
FILE_DESCRIPTION( ( '' ), '1' );
FILE_NAME( '//se01002/users/anro/AGRU_12705020000_PPH_grau_Rohr__5m_200X3_0__Ventilation_10.stp', '2018-02-07T08:11:45', ( '' ), ( '' ), ' ', ' ', ' ' );
FILE_SCHEMA( ( 'automotive_design' ) );
ENDSEC;
DATA;
#1 = MECHANICAL_DESIGN_GEOMETRIC_PRESENTATION_REPRESENTATION( ' ', ( #10, #11, #12, #13, #14, #15, #16, #17, #18, #19, #20, #21, #22, #23, #24, #25, #26, #27, #28, #29, #30, #31, #32, #33, #34, #35, #36 ), #6 );
#2 = PRODUCT_DEFINITION_CONTEXT( '', #37, 'design' );
#3 = APPLICATION_PROTOCOL_DEFINITION( 'INTERNATIONAL STANDARD', 'automotive_design', 1994, #37 );
#4 = PRODUCT_CATEGORY_RELATIONSHIP( 'NONE', 'NONE', #38, #39 );
#5 = SHAPE_DEFINITION_REPRESENTATION( #40, #41 );
#6 =  ( GEOMETRIC_REPRESENTATION_CONTEXT( 3 )GLOBAL_UNCERTAINTY_ASSIGNED_CONTEXT( ( #44 ) )GLOBAL_UNIT_ASSIGNED_CONTEXT( ( #46, #47, #48 ) )REPRESENTATION_CONTEXT( 'NONE', 'WORKSPACE' ) );
#10 = STYLED_ITEM( '', ( #50 ), #51 );
#11 = STYLED_ITEM( '', ( #52 ), #53 );
#12 = STYLED_ITEM( '', ( #54 ), #55 );
#13 = STYLED_ITEM( '', ( #56 ), #57 );
#14 = STYLED_ITEM( '', ( #58 ), #59 );
#15 = STYLED_ITEM( '', ( #60 ), #61 );
#16 = STYLED_ITEM( '', ( #62 ), #63 );
#17 = STYLED_ITEM( '', ( #64 ), #65 );
#18 = STYLED_ITEM( '', ( #66 ), #67 );
#19 = STYLED_ITEM( '', ( #68 ), #69 );
#20 = STYLED_ITEM( '', ( #70 ), #71 );
#21 = STYLED_ITEM( '', ( #72 ), #73 );
#22 = STYLED_ITEM( '', ( #74 ), #75 );
#23 = STYLED_ITEM( '', ( #76 ), #77 );
#24 = STYLED_ITEM( '', ( #78 ), #79 );
#25 = STYLED_ITEM( '', ( #80 ), #81 );
#26 = STYLED_ITEM( '', ( #82 ), #83 );
#27 = STYLED_ITEM( '', ( #84 ), #85 );
#28 = STYLED_ITEM( '', ( #86 ), #87 );
#29 = STYLED_ITEM( '', ( #88 ), #89 );
#30 = STYLED_ITEM( '', ( #90 ), #91 );
#31 = STYLED_ITEM( '', ( #92 ), #93 );
#32 = STYLED_ITEM( '', ( #94 ), #95 );
#33 = STYLED_ITEM( '', ( #96 ), #97 );
#34 = STYLED_ITEM( '', ( #98 ), #99 );
#35 = STYLED_ITEM( '', ( #100 ), #101 );
#36 = STYLED_ITEM( '', ( #102 ), #103 );
#37 = APPLICATION_CONTEXT( ' ' );
#38 = PRODUCT_CATEGORY( 'part', 'NONE' );
#39 = PRODUCT_RELATED_PRODUCT_CATEGORY( 'detail', ' ', ( #104 ) );
#40 = PRODUCT_DEFINITION_SHAPE( 'NONE', 'NONE', #105 );
#41 = ADVANCED_BREP_SHAPE_REPRESENTATION( '1', ( #77, #106 ), #6 );
#44 = UNCERTAINTY_MEASURE_WITH_UNIT( LENGTH_MEASURE( 1.00000000000000E-006 ), #46, '', '' );
#46 =  ( CONVERSION_BASED_UNIT( 'MILLIMETRE', #109 )LENGTH_UNIT(  )NAMED_UNIT( #112 ) );
#47 =  ( NAMED_UNIT( #114 )PLANE_ANGLE_UNIT(  )SI_UNIT( $, .RADIAN. ) );
#48 =  ( NAMED_UNIT( #114 )SOLID_ANGLE_UNIT(  )SI_UNIT( $, .STERADIAN. ) );
#50 = PRESENTATION_STYLE_ASSIGNMENT( ( #120 ) );
#51 = EDGE_CURVE( '', #61, #89, #121, .T. );
#52 = PRESENTATION_STYLE_ASSIGNMENT( ( #122 ) );
#53 = EDGE_CURVE( '', #61, #71, #123, .T. );
#54 = PRESENTATION_STYLE_ASSIGNMENT( ( #124 ) );
#55 = ADVANCED_FACE( '', ( #125 ), #126, .F. );
#56 = PRESENTATION_STYLE_ASSIGNMENT( ( #127 ) );
#57 = ADVANCED_FACE( '', ( #128 ), #129, .T. );
#58 = PRESENTATION_STYLE_ASSIGNMENT( ( #130 ) );
#59 = EDGE_CURVE( '', #93, #91, #131, .T. );
#60 = PRESENTATION_STYLE_ASSIGNMENT( ( #132 ) );
#61 = VERTEX_POINT( '', #133 );
#62 = PRESENTATION_STYLE_ASSIGNMENT( ( #134 ) );
#63 = VERTEX_POINT( '', #135 );
#64 = PRESENTATION_STYLE_ASSIGNMENT( ( #136 ) );
#65 = EDGE_CURVE( '', #79, #91, #137, .T. );
#66 = PRESENTATION_STYLE_ASSIGNMENT( ( #138 ) );
#67 = ADVANCED_FACE( '', ( #139 ), #140, .T. );
#68 = PRESENTATION_STYLE_ASSIGNMENT( ( #141 ) );
#69 = ADVANCED_FACE( '', ( #142 ), #143, .F. );
#70 = PRESENTATION_STYLE_ASSIGNMENT( ( #144 ) );
#71 = VERTEX_POINT( '', #145 );
#72 = PRESENTATION_STYLE_ASSIGNMENT( ( #146 ) );
#73 = EDGE_CURVE( '', #79, #83, #147, .T. );
#74 = PRESENTATION_STYLE_ASSIGNMENT( ( #148 ) );
#75 = EDGE_CURVE( '', #83, #79, #149, .T. );
#76 = PRESENTATION_STYLE_ASSIGNMENT( ( #150 ) );
#77 = MANIFOLD_SOLID_BREP( '1', #151 );
#78 = PRESENTATION_STYLE_ASSIGNMENT( ( #152 ) );
#79 = VERTEX_POINT( '', #153 );
#80 = PRESENTATION_STYLE_ASSIGNMENT( ( #154 ) );
#81 = EDGE_CURVE( '', #93, #83, #155, .T. );
#82 = PRESENTATION_STYLE_ASSIGNMENT( ( #156 ) );
#83 = VERTEX_POINT( '', #157 );
#84 = PRESENTATION_STYLE_ASSIGNMENT( ( #158 ) );
#85 = EDGE_CURVE( '', #63, #89, #159, .T. );
#86 = PRESENTATION_STYLE_ASSIGNMENT( ( #160 ) );
#87 = ADVANCED_FACE( '', ( #161, #162 ), #163, .T. );
#88 = PRESENTATION_STYLE_ASSIGNMENT( ( #164 ) );
#89 = VERTEX_POINT( '', #165 );
#90 = PRESENTATION_STYLE_ASSIGNMENT( ( #166 ) );
#91 = VERTEX_POINT( '', #167 );
#92 = PRESENTATION_STYLE_ASSIGNMENT( ( #168 ) );
#93 = VERTEX_POINT( '', #169 );
#94 = PRESENTATION_STYLE_ASSIGNMENT( ( #170 ) );
#95 = EDGE_CURVE( '', #71, #61, #171, .T. );
#96 = PRESENTATION_STYLE_ASSIGNMENT( ( #172 ) );
#97 = ADVANCED_FACE( '', ( #173, #174 ), #175, .F. );
#98 = PRESENTATION_STYLE_ASSIGNMENT( ( #176 ) );
#99 = EDGE_CURVE( '', #63, #71, #177, .T. );
#100 = PRESENTATION_STYLE_ASSIGNMENT( ( #178 ) );
#101 = EDGE_CURVE( '', #91, #93, #179, .T. );
#102 = PRESENTATION_STYLE_ASSIGNMENT( ( #180 ) );
#103 = EDGE_CURVE( '', #89, #63, #181, .T. );
#104 = PRODUCT( '1', '1', 'PART-1-DESC', ( #182 ) );
#105 = PRODUCT_DEFINITION( 'NONE', 'NONE', #183, #2 );
#106 = AXIS2_PLACEMENT_3D( '', #184, #185, #186 );
#109 = LENGTH_MEASURE_WITH_UNIT( LENGTH_MEASURE( 1.00000000000000 ), #187 );
#112 = DIMENSIONAL_EXPONENTS( 1.00000000000000, 0.000000000000000, 0.000000000000000, 0.000000000000000, 0.000000000000000, 0.000000000000000, 0.000000000000000 );
#114 = DIMENSIONAL_EXPONENTS( 0.000000000000000, 0.000000000000000, 0.000000000000000, 0.000000000000000, 0.000000000000000, 0.000000000000000, 0.000000000000000 );
#120 = CURVE_STYLE( '', #188, POSITIVE_LENGTH_MEASURE( 1.00000000000000E-006 ), #189 );
#121 = LINE( '', #190, #191 );
#122 = CURVE_STYLE( '', #192, POSITIVE_LENGTH_MEASURE( 1.00000000000000E-006 ), #193 );
#123 = CIRCLE( '', #194, 97.0000000000000 );
#124 = SURFACE_STYLE_USAGE( .BOTH., #195 );
#125 = FACE_OUTER_BOUND( '', #196, .T. );
#126 = CYLINDRICAL_SURFACE( '', #197, 97.0000000000000 );
#127 = SURFACE_STYLE_USAGE( .BOTH., #198 );
#128 = FACE_OUTER_BOUND( '', #199, .T. );
#129 = CYLINDRICAL_SURFACE( '', #200, 100.000000000000 );
#130 = CURVE_STYLE( '', #201, POSITIVE_LENGTH_MEASURE( 1.00000000000000E-006 ), #202 );
#131 = CIRCLE( '', #203, 100.000000000000 );
#132 = POINT_STYLE( ' ', #204, POSITIVE_LENGTH_MEASURE( 1.00000000000000E-006 ), #205 );
#133 = CARTESIAN_POINT( '', ( 5000.00000000000, 1.18786816320771E-014, 97.0000000000000 ) );
#134 = POINT_STYLE( ' ', #206, POSITIVE_LENGTH_MEASURE( 1.00000000000000E-006 ), #207 );
#135 = CARTESIAN_POINT( '', ( 0.000000000000000, 0.000000000000000, -97.0000000000000 ) );
#136 = CURVE_STYLE( '', #208, POSITIVE_LENGTH_MEASURE( 1.00000000000000E-006 ), #209 );
#137 = LINE( '', #210, #211 );
#138 = SURFACE_STYLE_USAGE( .BOTH., #212 );
#139 = FACE_OUTER_BOUND( '', #213, .T. );
#140 = CYLINDRICAL_SURFACE( '', #214, 100.000000000000 );
#141 = SURFACE_STYLE_USAGE( .BOTH., #215 );
#142 = FACE_OUTER_BOUND( '', #216, .T. );
#143 = CYLINDRICAL_SURFACE( '', #217, 97.0000000000000 );
#144 = POINT_STYLE( ' ', #218, POSITIVE_LENGTH_MEASURE( 1.00000000000000E-006 ), #219 );
#145 = CARTESIAN_POINT( '', ( 5000.00000000000, 0.000000000000000, -97.0000000000000 ) );
#146 = CURVE_STYLE( '', #220, POSITIVE_LENGTH_MEASURE( 1.00000000000000E-006 ), #221 );
#147 = CIRCLE( '', #222, 100.000000000000 );
#148 = CURVE_STYLE( '', #223, POSITIVE_LENGTH_MEASURE( 1.00000000000000E-006 ), #224 );
#149 = CIRCLE( '', #225, 100.000000000000 );
#150 = SURFACE_STYLE_USAGE( .BOTH., #226 );
#151 = CLOSED_SHELL( '', ( #57, #69, #55, #67, #87, #97 ) );
#152 = POINT_STYLE( ' ', #227, POSITIVE_LENGTH_MEASURE( 1.00000000000000E-006 ), #228 );
#153 = CARTESIAN_POINT( '', ( 0.000000000000000, 0.000000000000000, -100.000000000000 ) );
#154 = CURVE_STYLE( '', #229, POSITIVE_LENGTH_MEASURE( 1.00000000000000E-006 ), #230 );
#155 = LINE( '', #231, #232 );
#156 = POINT_STYLE( ' ', #233, POSITIVE_LENGTH_MEASURE( 1.00000000000000E-006 ), #234 );
#157 = CARTESIAN_POINT( '', ( 0.000000000000000, 1.22460635382238E-014, 100.000000000000 ) );
#158 = CURVE_STYLE( '', #235, POSITIVE_LENGTH_MEASURE( 1.00000000000000E-006 ), #236 );
#159 = CIRCLE( '', #237, 97.0000000000000 );
#160 = SURFACE_STYLE_USAGE( .BOTH., #238 );
#161 = FACE_OUTER_BOUND( '', #239, .T. );
#162 = FACE_BOUND( '', #240, .T. );
#163 = PLANE( '', #241 );
#164 = POINT_STYLE( ' ', #242, POSITIVE_LENGTH_MEASURE( 1.00000000000000E-006 ), #243 );
#165 = CARTESIAN_POINT( '', ( 0.000000000000000, 1.18786816320771E-014, 97.0000000000000 ) );
#166 = POINT_STYLE( ' ', #244, POSITIVE_LENGTH_MEASURE( 1.00000000000000E-006 ), #245 );
#167 = CARTESIAN_POINT( '', ( 5000.00000000000, 0.000000000000000, -100.000000000000 ) );
#168 = POINT_STYLE( ' ', #246, POSITIVE_LENGTH_MEASURE( 1.00000000000000E-006 ), #247 );
#169 = CARTESIAN_POINT( '', ( 5000.00000000000, 1.22460635382238E-014, 100.000000000000 ) );
#170 = CURVE_STYLE( '', #248, POSITIVE_LENGTH_MEASURE( 1.00000000000000E-006 ), #249 );
#171 = CIRCLE( '', #250, 97.0000000000000 );
#172 = SURFACE_STYLE_USAGE( .BOTH., #251 );
#173 = FACE_OUTER_BOUND( '', #252, .T. );
#174 = FACE_BOUND( '', #253, .T. );
#175 = PLANE( '', #254 );
#176 = CURVE_STYLE( '', #255, POSITIVE_LENGTH_MEASURE( 1.00000000000000E-006 ), #256 );
#177 = LINE( '', #257, #258 );
#178 = CURVE_STYLE( '', #259, POSITIVE_LENGTH_MEASURE( 1.00000000000000E-006 ), #260 );
#179 = CIRCLE( '', #261, 100.000000000000 );
#180 = CURVE_STYLE( '', #262, POSITIVE_LENGTH_MEASURE( 1.00000000000000E-006 ), #263 );
#181 = CIRCLE( '', #264, 97.0000000000000 );
#182 = PRODUCT_CONTEXT( '', #37, 'mechanical' );
#183 = PRODUCT_DEFINITION_FORMATION_WITH_SPECIFIED_SOURCE( ' ', 'NONE', #104, .NOT_KNOWN. );
#184 = CARTESIAN_POINT( '', ( 0.000000000000000, 0.000000000000000, 0.000000000000000 ) );
#185 = DIRECTION( '', ( 0.000000000000000, 0.000000000000000, 1.00000000000000 ) );
#186 = DIRECTION( '', ( 1.00000000000000, 0.000000000000000, 0.000000000000000 ) );
#187 =  ( NAMED_UNIT( #112 )LENGTH_UNIT(  )SI_UNIT( .MILLI., .METRE. ) );
#188 = DRAUGHTING_PRE_DEFINED_CURVE_FONT( 'continuous' );
#189 = COLOUR_RGB( '', 0.689999997615810, 0.689999997615810, 0.689999997615810 );
#190 = CARTESIAN_POINT( '', ( 0.000000000000000, 1.18786816320771E-014, 97.0000000000000 ) );
#191 = VECTOR( '', #266, 1.00000000000000 );
#192 = DRAUGHTING_PRE_DEFINED_CURVE_FONT( 'continuous' );
#193 = COLOUR_RGB( '', 0.689999997615810, 0.689999997615810, 0.689999997615810 );
#194 = AXIS2_PLACEMENT_3D( '', #267, #268, #269 );
#195 = SURFACE_SIDE_STYLE( '', ( #270 ) );
#196 = EDGE_LOOP( '', ( #271, #272, #273, #274 ) );
#197 = AXIS2_PLACEMENT_3D( '', #275, #276, #277 );
#198 = SURFACE_SIDE_STYLE( '', ( #278 ) );
#199 = EDGE_LOOP( '', ( #279, #280, #281, #282 ) );
#200 = AXIS2_PLACEMENT_3D( '', #283, #284, #285 );
#201 = DRAUGHTING_PRE_DEFINED_CURVE_FONT( 'continuous' );
#202 = COLOUR_RGB( '', 0.689999997615810, 0.689999997615810, 0.689999997615810 );
#203 = AXIS2_PLACEMENT_3D( '', #286, #287, #288 );
#204 = PRE_DEFINED_MARKER( '' );
#205 = COLOUR_RGB( '', 0.689999997615810, 0.689999997615810, 0.689999997615810 );
#206 = PRE_DEFINED_MARKER( '' );
#207 = COLOUR_RGB( '', 0.689999997615810, 0.689999997615810, 0.689999997615810 );
#208 = DRAUGHTING_PRE_DEFINED_CURVE_FONT( 'continuous' );
#209 = COLOUR_RGB( '', 0.689999997615810, 0.689999997615810, 0.689999997615810 );
#210 = CARTESIAN_POINT( '', ( 0.000000000000000, -1.22460635382238E-014, -100.000000000000 ) );
#211 = VECTOR( '', #289, 1.00000000000000 );
#212 = SURFACE_SIDE_STYLE( '', ( #290 ) );
#213 = EDGE_LOOP( '', ( #291, #292, #293, #294 ) );
#214 = AXIS2_PLACEMENT_3D( '', #295, #296, #297 );
#215 = SURFACE_SIDE_STYLE( '', ( #298 ) );
#216 = EDGE_LOOP( '', ( #299, #300, #301, #302 ) );
#217 = AXIS2_PLACEMENT_3D( '', #303, #304, #305 );
#218 = PRE_DEFINED_MARKER( '' );
#219 = COLOUR_RGB( '', 0.689999997615810, 0.689999997615810, 0.689999997615810 );
#220 = DRAUGHTING_PRE_DEFINED_CURVE_FONT( 'continuous' );
#221 = COLOUR_RGB( '', 0.689999997615810, 0.689999997615810, 0.689999997615810 );
#222 = AXIS2_PLACEMENT_3D( '', #306, #307, #308 );
#223 = DRAUGHTING_PRE_DEFINED_CURVE_FONT( 'continuous' );
#224 = COLOUR_RGB( '', 0.689999997615810, 0.689999997615810, 0.689999997615810 );
#225 = AXIS2_PLACEMENT_3D( '', #309, #310, #311 );
#226 = SURFACE_SIDE_STYLE( '', ( #312 ) );
#227 = PRE_DEFINED_MARKER( '' );
#228 = COLOUR_RGB( '', 0.689999997615810, 0.689999997615810, 0.689999997615810 );
#229 = DRAUGHTING_PRE_DEFINED_CURVE_FONT( 'continuous' );
#230 = COLOUR_RGB( '', 0.689999997615810, 0.689999997615810, 0.689999997615810 );
#231 = CARTESIAN_POINT( '', ( 0.000000000000000, 1.22460635382238E-014, 100.000000000000 ) );
#232 = VECTOR( '', #313, 1.00000000000000 );
#233 = PRE_DEFINED_MARKER( '' );
#234 = COLOUR_RGB( '', 0.689999997615810, 0.689999997615810, 0.689999997615810 );
#235 = DRAUGHTING_PRE_DEFINED_CURVE_FONT( 'continuous' );
#236 = COLOUR_RGB( '', 0.689999997615810, 0.689999997615810, 0.689999997615810 );
#237 = AXIS2_PLACEMENT_3D( '', #314, #315, #316 );
#238 = SURFACE_SIDE_STYLE( '', ( #317 ) );
#239 = EDGE_LOOP( '', ( #318, #319 ) );
#240 = EDGE_LOOP( '', ( #320, #321 ) );
#241 = AXIS2_PLACEMENT_3D( '', #322, #323, #324 );
#242 = PRE_DEFINED_MARKER( '' );
#243 = COLOUR_RGB( '', 0.689999997615810, 0.689999997615810, 0.689999997615810 );
#244 = PRE_DEFINED_MARKER( '' );
#245 = COLOUR_RGB( '', 0.689999997615810, 0.689999997615810, 0.689999997615810 );
#246 = PRE_DEFINED_MARKER( '' );
#247 = COLOUR_RGB( '', 0.689999997615810, 0.689999997615810, 0.689999997615810 );
#248 = DRAUGHTING_PRE_DEFINED_CURVE_FONT( 'continuous' );
#249 = COLOUR_RGB( '', 0.689999997615810, 0.689999997615810, 0.689999997615810 );
#250 = AXIS2_PLACEMENT_3D( '', #325, #326, #327 );
#251 = SURFACE_SIDE_STYLE( '', ( #328 ) );
#252 = EDGE_LOOP( '', ( #329, #330 ) );
#253 = EDGE_LOOP( '', ( #331, #332 ) );
#254 = AXIS2_PLACEMENT_3D( '', #333, #334, #335 );
#255 = DRAUGHTING_PRE_DEFINED_CURVE_FONT( 'continuous' );
#256 = COLOUR_RGB( '', 0.689999997615810, 0.689999997615810, 0.689999997615810 );
#257 = CARTESIAN_POINT( '', ( 0.000000000000000, -1.18786816320771E-014, -97.0000000000000 ) );
#258 = VECTOR( '', #336, 1.00000000000000 );
#259 = DRAUGHTING_PRE_DEFINED_CURVE_FONT( 'continuous' );
#260 = COLOUR_RGB( '', 0.689999997615810, 0.689999997615810, 0.689999997615810 );
#261 = AXIS2_PLACEMENT_3D( '', #337, #338, #339 );
#262 = DRAUGHTING_PRE_DEFINED_CURVE_FONT( 'continuous' );
#263 = COLOUR_RGB( '', 0.689999997615810, 0.689999997615810, 0.689999997615810 );
#264 = AXIS2_PLACEMENT_3D( '', #340, #341, #342 );
#266 = DIRECTION( '', ( -1.00000000000000, 0.000000000000000, 0.000000000000000 ) );
#267 = CARTESIAN_POINT( '', ( 5000.00000000000, 0.000000000000000, 0.000000000000000 ) );
#268 = DIRECTION( '', ( 1.00000000000000, 0.000000000000000, 0.000000000000000 ) );
#269 = DIRECTION( '', ( 0.000000000000000, 0.000000000000000, -1.00000000000000 ) );
#270 = SURFACE_STYLE_FILL_AREA( #343 );
#271 = ORIENTED_EDGE( '', *, *, #99, .T. );
#272 = ORIENTED_EDGE( '', *, *, #95, .T. );
#273 = ORIENTED_EDGE( '', *, *, #51, .T. );
#274 = ORIENTED_EDGE( '', *, *, #85, .F. );
#275 = CARTESIAN_POINT( '', ( 0.000000000000000, 0.000000000000000, 0.000000000000000 ) );
#276 = DIRECTION( '', ( -1.00000000000000, -0.000000000000000, -0.000000000000000 ) );
#277 = DIRECTION( '', ( 0.000000000000000, 0.000000000000000, -1.00000000000000 ) );
#278 = SURFACE_STYLE_FILL_AREA( #344 );
#279 = ORIENTED_EDGE( '', *, *, #65, .F. );
#280 = ORIENTED_EDGE( '', *, *, #73, .T. );
#281 = ORIENTED_EDGE( '', *, *, #81, .F. );
#282 = ORIENTED_EDGE( '', *, *, #59, .T. );
#283 = CARTESIAN_POINT( '', ( 0.000000000000000, 0.000000000000000, 0.000000000000000 ) );
#284 = DIRECTION( '', ( -1.00000000000000, -0.000000000000000, -0.000000000000000 ) );
#285 = DIRECTION( '', ( 0.000000000000000, 0.000000000000000, -1.00000000000000 ) );
#286 = CARTESIAN_POINT( '', ( 5000.00000000000, 0.000000000000000, 0.000000000000000 ) );
#287 = DIRECTION( '', ( -1.00000000000000, 0.000000000000000, 0.000000000000000 ) );
#288 = DIRECTION( '', ( 0.000000000000000, 0.000000000000000, -1.00000000000000 ) );
#289 = DIRECTION( '', ( 1.00000000000000, 0.000000000000000, 0.000000000000000 ) );
#290 = SURFACE_STYLE_FILL_AREA( #345 );
#291 = ORIENTED_EDGE( '', *, *, #65, .T. );
#292 = ORIENTED_EDGE( '', *, *, #101, .T. );
#293 = ORIENTED_EDGE( '', *, *, #81, .T. );
#294 = ORIENTED_EDGE( '', *, *, #75, .T. );
#295 = CARTESIAN_POINT( '', ( 0.000000000000000, 0.000000000000000, 0.000000000000000 ) );
#296 = DIRECTION( '', ( -1.00000000000000, -0.000000000000000, -0.000000000000000 ) );
#297 = DIRECTION( '', ( 0.000000000000000, 0.000000000000000, -1.00000000000000 ) );
#298 = SURFACE_STYLE_FILL_AREA( #346 );
#299 = ORIENTED_EDGE( '', *, *, #99, .F. );
#300 = ORIENTED_EDGE( '', *, *, #103, .F. );
#301 = ORIENTED_EDGE( '', *, *, #51, .F. );
#302 = ORIENTED_EDGE( '', *, *, #53, .T. );
#303 = CARTESIAN_POINT( '', ( 0.000000000000000, 0.000000000000000, 0.000000000000000 ) );
#304 = DIRECTION( '', ( -1.00000000000000, -0.000000000000000, -0.000000000000000 ) );
#305 = DIRECTION( '', ( 0.000000000000000, 0.000000000000000, -1.00000000000000 ) );
#306 = CARTESIAN_POINT( '', ( 0.000000000000000, 0.000000000000000, 0.000000000000000 ) );
#307 = DIRECTION( '', ( 1.00000000000000, -0.000000000000000, 0.000000000000000 ) );
#308 = DIRECTION( '', ( 0.000000000000000, 0.000000000000000, -1.00000000000000 ) );
#309 = CARTESIAN_POINT( '', ( 0.000000000000000, 0.000000000000000, 0.000000000000000 ) );
#310 = DIRECTION( '', ( 1.00000000000000, -0.000000000000000, 0.000000000000000 ) );
#311 = DIRECTION( '', ( 0.000000000000000, 0.000000000000000, -1.00000000000000 ) );
#312 = SURFACE_STYLE_FILL_AREA( #347 );
#313 = DIRECTION( '', ( -1.00000000000000, -0.000000000000000, -0.000000000000000 ) );
#314 = CARTESIAN_POINT( '', ( 0.000000000000000, 0.000000000000000, 0.000000000000000 ) );
#315 = DIRECTION( '', ( 1.00000000000000, -0.000000000000000, 0.000000000000000 ) );
#316 = DIRECTION( '', ( 0.000000000000000, 0.000000000000000, -1.00000000000000 ) );
#317 = SURFACE_STYLE_FILL_AREA( #348 );
#318 = ORIENTED_EDGE( '', *, *, #101, .F. );
#319 = ORIENTED_EDGE( '', *, *, #59, .F. );
#320 = ORIENTED_EDGE( '', *, *, #95, .F. );
#321 = ORIENTED_EDGE( '', *, *, #53, .F. );
#322 = CARTESIAN_POINT( '', ( 5000.00000000000, 0.000000000000000, 0.000000000000000 ) );
#323 = DIRECTION( '', ( 1.00000000000000, 0.000000000000000, 0.000000000000000 ) );
#324 = DIRECTION( '', ( 0.000000000000000, 0.000000000000000, -1.00000000000000 ) );
#325 = CARTESIAN_POINT( '', ( 5000.00000000000, 0.000000000000000, 0.000000000000000 ) );
#326 = DIRECTION( '', ( 1.00000000000000, 0.000000000000000, 0.000000000000000 ) );
#327 = DIRECTION( '', ( 0.000000000000000, 0.000000000000000, -1.00000000000000 ) );
#328 = SURFACE_STYLE_FILL_AREA( #349 );
#329 = ORIENTED_EDGE( '', *, *, #73, .F. );
#330 = ORIENTED_EDGE( '', *, *, #75, .F. );
#331 = ORIENTED_EDGE( '', *, *, #85, .T. );
#332 = ORIENTED_EDGE( '', *, *, #103, .T. );
#333 = CARTESIAN_POINT( '', ( 0.000000000000000, 0.000000000000000, 0.000000000000000 ) );
#334 = DIRECTION( '', ( 1.00000000000000, 0.000000000000000, 0.000000000000000 ) );
#335 = DIRECTION( '', ( 0.000000000000000, 0.000000000000000, -1.00000000000000 ) );
#336 = DIRECTION( '', ( 1.00000000000000, 0.000000000000000, 0.000000000000000 ) );
#337 = CARTESIAN_POINT( '', ( 5000.00000000000, 0.000000000000000, 0.000000000000000 ) );
#338 = DIRECTION( '', ( -1.00000000000000, 0.000000000000000, 0.000000000000000 ) );
#339 = DIRECTION( '', ( 0.000000000000000, 0.000000000000000, -1.00000000000000 ) );
#340 = CARTESIAN_POINT( '', ( 0.000000000000000, 0.000000000000000, 0.000000000000000 ) );
#341 = DIRECTION( '', ( 1.00000000000000, -0.000000000000000, 0.000000000000000 ) );
#342 = DIRECTION( '', ( 0.000000000000000, 0.000000000000000, -1.00000000000000 ) );
#343 = FILL_AREA_STYLE( '', ( #350 ) );
#344 = FILL_AREA_STYLE( '', ( #351 ) );
#345 = FILL_AREA_STYLE( '', ( #352 ) );
#346 = FILL_AREA_STYLE( '', ( #353 ) );
#347 = FILL_AREA_STYLE( '', ( #354 ) );
#348 = FILL_AREA_STYLE( '', ( #355 ) );
#349 = FILL_AREA_STYLE( '', ( #356 ) );
#350 = FILL_AREA_STYLE_COLOUR( '', #357 );
#351 = FILL_AREA_STYLE_COLOUR( '', #358 );
#352 = FILL_AREA_STYLE_COLOUR( '', #359 );
#353 = FILL_AREA_STYLE_COLOUR( '', #360 );
#354 = FILL_AREA_STYLE_COLOUR( '', #361 );
#355 = FILL_AREA_STYLE_COLOUR( '', #362 );
#356 = FILL_AREA_STYLE_COLOUR( '', #363 );
#357 = COLOUR_RGB( '', 0.689999997615810, 0.689999997615810, 0.689999997615810 );
#358 = COLOUR_RGB( '', 0.689999997615810, 0.689999997615810, 0.689999997615810 );
#359 = COLOUR_RGB( '', 0.689999997615810, 0.689999997615810, 0.689999997615810 );
#360 = COLOUR_RGB( '', 0.689999997615810, 0.689999997615810, 0.689999997615810 );
#361 = COLOUR_RGB( '', 0.689999997615810, 0.689999997615810, 0.689999997615810 );
#362 = COLOUR_RGB( '', 0.689999997615810, 0.689999997615810, 0.689999997615810 );
#363 = COLOUR_RGB( '', 0.689999997615810, 0.689999997615810, 0.689999997615810 );
ENDSEC;
END-ISO-10303-21;
