ISO-10303-21;
HEADER;
/* Generated by software containing ST-Developer
 * from STEP Tools, Inc. (www.steptools.com) 
 */

FILE_DESCRIPTION(
/* description */ (''),
/* implementation_level */ '2;1');

FILE_NAME(
/* name */ 'C:\\Users\\Gabriele\\Desktop\\catalogo\\TR40\\TR40160N.stp',

/* time_stamp */ '2016-10-17T15:14:38+02:00',
/* author */ ('Gabriele'),
/* organization */ (''),
/* preprocessor_version */ 'ST-DEVELOPER v16.5',
/* originating_system */ 'Autodesk Inventor 2017',
/* authorisation */ '');

FILE_SCHEMA (('AUTOMOTIVE_DESIGN { 1 0 10303 214 3 1 1 }'));
ENDSEC;

DATA;
#10=MECHANICAL_DESIGN_GEOMETRIC_PRESENTATION_REPRESENTATION('',(#13),#481);
#11=SHAPE_REPRESENTATION_RELATIONSHIP('SRR','None',#490,#12);
#12=ADVANCED_BREP_SHAPE_REPRESENTATION('',(#14),#480);
#13=STYLED_ITEM('',(#499),#14);
#14=MANIFOLD_SOLID_BREP('Solido1',#200);
#15=B_SPLINE_CURVE_WITH_KNOTS('',3,(#333,#334,#335,#336,#337,#338,#339,
#340,#341,#342,#343,#344,#345,#346,#347,#348,#349,#350,#351,#352,#353,#354,
#355,#356,#357,#358,#359,#360,#361,#362,#363,#364,#365,#366,#367,#368,#369,
#370,#371,#372,#373,#374,#375,#376,#377,#378,#379,#380,#381,#382,#383,#384,
#385,#386,#387,#388,#389,#390,#391,#392,#393,#394,#395,#396,#397,#398),
 .UNSPECIFIED.,.T.,.F.,(4,2,2,2,2,2,2,2,2,2,2,2,2,2,2,2,2,2,2,2,2,2,2,2,
2,2,2,2,2,2,2,2,4),(0.,1.47219560438053,2.94439120876106,4.41658681314159,
5.88878241752212,7.27728753986602,8.66579266220992,10.0542977845538,11.4428029068977,
12.8313080292416,14.2198131515855,15.6083182739294,16.9968233962733,18.4690190006539,
19.9412146050344,21.4134102094149,22.8856058137955,24.357801418176,25.8299970225565,
27.302192626937,28.7743882313176,30.1628933536615,31.5513984760054,32.9399035983493,
34.3284087206932,35.7169138430371,37.105418965381,38.4939240877249,39.8824292100688,
41.3546248144493,42.8268204188298,44.2990160232104,45.7712116275909),
 .UNSPECIFIED.);
#16=B_SPLINE_CURVE_WITH_KNOTS('',3,(#409,#410,#411,#412,#413,#414,#415,
#416,#417,#418,#419,#420,#421,#422,#423,#424,#425,#426,#427,#428,#429,#430,
#431,#432,#433,#434,#435,#436,#437,#438,#439,#440,#441,#442,#443,#444,#445,
#446,#447,#448,#449,#450,#451,#452,#453,#454,#455,#456,#457,#458,#459,#460,
#461,#462,#463,#464,#465,#466,#467,#468,#469,#470,#471,#472,#473,#474),
 .UNSPECIFIED.,.T.,.F.,(4,2,2,2,2,2,2,2,2,2,2,2,2,2,2,2,2,2,2,2,2,2,2,2,
2,2,2,2,2,2,2,2,4),(0.,1.75522212483037,3.51044424966074,5.26566637449111,
7.02088849932148,8.66483618071237,10.3087838621033,11.9527315434941,13.596679224885,
15.2406269062759,16.8845745876668,18.5285222690577,20.1724699504486,21.927692075279,
23.6829142001093,25.4381363249397,27.1933584497701,28.9485805746004,30.7038026994308,
32.4590248242612,34.2142469490916,35.8581946304825,37.5021423118733,39.1460899932642,
40.7900376746551,42.433985356046,44.0779330374369,45.7218807188278,47.3658284002187,
49.1210505250491,50.8762726498794,52.6314947747098,54.3867168995402),
 .UNSPECIFIED.);
#17=PLANE('',#207);
#18=PLANE('',#214);
#19=PLANE('',#221);
#20=PLANE('',#228);
#21=PLANE('',#231);
#22=PLANE('',#232);
#23=CYLINDRICAL_SURFACE('',#205,80.);
#24=CYLINDRICAL_SURFACE('',#212,80.);
#25=CYLINDRICAL_SURFACE('',#219,70.);
#26=CYLINDRICAL_SURFACE('',#223,69.);
#27=CYLINDRICAL_SURFACE('',#225,79.);
#28=CYLINDRICAL_SURFACE('',#229,81.5);
#29=CYLINDRICAL_SURFACE('',#230,92.);
#30=FACE_BOUND('',#65,.T.);
#31=FACE_BOUND('',#67,.T.);
#32=FACE_BOUND('',#69,.T.);
#33=FACE_BOUND('',#71,.T.);
#34=FACE_BOUND('',#73,.T.);
#35=FACE_BOUND('',#75,.T.);
#36=FACE_BOUND('',#77,.T.);
#37=FACE_BOUND('',#79,.T.);
#38=FACE_BOUND('',#81,.T.);
#39=FACE_BOUND('',#83,.T.);
#40=FACE_BOUND('',#85,.T.);
#41=FACE_BOUND('',#86,.T.);
#42=FACE_BOUND('',#88,.T.);
#43=FACE_BOUND('',#90,.T.);
#44=FACE_BOUND('',#92,.T.);
#45=FACE_BOUND('',#93,.T.);
#46=FACE_BOUND('',#95,.T.);
#47=FACE_BOUND('',#97,.T.);
#48=FACE_OUTER_BOUND('',#64,.T.);
#49=FACE_OUTER_BOUND('',#66,.T.);
#50=FACE_OUTER_BOUND('',#68,.T.);
#51=FACE_OUTER_BOUND('',#70,.T.);
#52=FACE_OUTER_BOUND('',#72,.T.);
#53=FACE_OUTER_BOUND('',#74,.T.);
#54=FACE_OUTER_BOUND('',#76,.T.);
#55=FACE_OUTER_BOUND('',#78,.T.);
#56=FACE_OUTER_BOUND('',#80,.T.);
#57=FACE_OUTER_BOUND('',#82,.T.);
#58=FACE_OUTER_BOUND('',#84,.T.);
#59=FACE_OUTER_BOUND('',#87,.T.);
#60=FACE_OUTER_BOUND('',#89,.T.);
#61=FACE_OUTER_BOUND('',#91,.T.);
#62=FACE_OUTER_BOUND('',#94,.T.);
#63=FACE_OUTER_BOUND('',#96,.T.);
#64=EDGE_LOOP('',(#147));
#65=EDGE_LOOP('',(#148));
#66=EDGE_LOOP('',(#149));
#67=EDGE_LOOP('',(#150));
#68=EDGE_LOOP('',(#151));
#69=EDGE_LOOP('',(#152));
#70=EDGE_LOOP('',(#153));
#71=EDGE_LOOP('',(#154));
#72=EDGE_LOOP('',(#155));
#73=EDGE_LOOP('',(#156));
#74=EDGE_LOOP('',(#157));
#75=EDGE_LOOP('',(#158));
#76=EDGE_LOOP('',(#159));
#77=EDGE_LOOP('',(#160));
#78=EDGE_LOOP('',(#161));
#79=EDGE_LOOP('',(#162));
#80=EDGE_LOOP('',(#163));
#81=EDGE_LOOP('',(#164));
#82=EDGE_LOOP('',(#165));
#83=EDGE_LOOP('',(#166));
#84=EDGE_LOOP('',(#167));
#85=EDGE_LOOP('',(#168));
#86=EDGE_LOOP('',(#169));
#87=EDGE_LOOP('',(#170));
#88=EDGE_LOOP('',(#171));
#89=EDGE_LOOP('',(#172));
#90=EDGE_LOOP('',(#173));
#91=EDGE_LOOP('',(#174));
#92=EDGE_LOOP('',(#175));
#93=EDGE_LOOP('',(#176));
#94=EDGE_LOOP('',(#177));
#95=EDGE_LOOP('',(#178));
#96=EDGE_LOOP('',(#179));
#97=EDGE_LOOP('',(#180));
#98=CIRCLE('',#203,80.);
#99=CIRCLE('',#204,80.5);
#100=CIRCLE('',#206,80.);
#101=CIRCLE('',#208,92.);
#102=CIRCLE('',#210,80.);
#103=CIRCLE('',#211,80.5);
#104=CIRCLE('',#213,80.);
#105=CIRCLE('',#215,92.);
#106=CIRCLE('',#217,70.);
#107=CIRCLE('',#218,70.5);
#108=CIRCLE('',#220,70.);
#109=CIRCLE('',#222,81.5);
#110=CIRCLE('',#224,69.);
#111=CIRCLE('',#226,79.);
#112=CIRCLE('',#227,79.);
#113=VERTEX_POINT('',#299);
#114=VERTEX_POINT('',#301);
#115=VERTEX_POINT('',#304);
#116=VERTEX_POINT('',#307);
#117=VERTEX_POINT('',#310);
#118=VERTEX_POINT('',#312);
#119=VERTEX_POINT('',#315);
#120=VERTEX_POINT('',#318);
#121=VERTEX_POINT('',#321);
#122=VERTEX_POINT('',#323);
#123=VERTEX_POINT('',#326);
#124=VERTEX_POINT('',#329);
#125=VERTEX_POINT('',#332);
#126=VERTEX_POINT('',#399);
#127=VERTEX_POINT('',#402);
#128=VERTEX_POINT('',#404);
#129=VERTEX_POINT('',#408);
#130=EDGE_CURVE('',#113,#113,#98,.T.);
#131=EDGE_CURVE('',#114,#114,#99,.T.);
#132=EDGE_CURVE('',#115,#115,#100,.T.);
#133=EDGE_CURVE('',#116,#116,#101,.T.);
#134=EDGE_CURVE('',#117,#117,#102,.T.);
#135=EDGE_CURVE('',#118,#118,#103,.T.);
#136=EDGE_CURVE('',#119,#119,#104,.T.);
#137=EDGE_CURVE('',#120,#120,#105,.T.);
#138=EDGE_CURVE('',#121,#121,#106,.T.);
#139=EDGE_CURVE('',#122,#122,#107,.T.);
#140=EDGE_CURVE('',#123,#123,#108,.T.);
#141=EDGE_CURVE('',#124,#124,#109,.T.);
#142=EDGE_CURVE('',#125,#125,#15,.T.);
#143=EDGE_CURVE('',#126,#126,#110,.T.);
#144=EDGE_CURVE('',#127,#127,#111,.T.);
#145=EDGE_CURVE('',#128,#128,#112,.T.);
#146=EDGE_CURVE('',#129,#129,#16,.T.);
#147=ORIENTED_EDGE('',*,*,#130,.T.);
#148=ORIENTED_EDGE('',*,*,#131,.T.);
#149=ORIENTED_EDGE('',*,*,#132,.T.);
#150=ORIENTED_EDGE('',*,*,#130,.F.);
#151=ORIENTED_EDGE('',*,*,#133,.T.);
#152=ORIENTED_EDGE('',*,*,#131,.F.);
#153=ORIENTED_EDGE('',*,*,#134,.T.);
#154=ORIENTED_EDGE('',*,*,#135,.T.);
#155=ORIENTED_EDGE('',*,*,#136,.F.);
#156=ORIENTED_EDGE('',*,*,#134,.F.);
#157=ORIENTED_EDGE('',*,*,#137,.T.);
#158=ORIENTED_EDGE('',*,*,#135,.F.);
#159=ORIENTED_EDGE('',*,*,#138,.T.);
#160=ORIENTED_EDGE('',*,*,#139,.T.);
#161=ORIENTED_EDGE('',*,*,#140,.T.);
#162=ORIENTED_EDGE('',*,*,#138,.F.);
#163=ORIENTED_EDGE('',*,*,#141,.F.);
#164=ORIENTED_EDGE('',*,*,#139,.F.);
#165=ORIENTED_EDGE('',*,*,#142,.F.);
#166=ORIENTED_EDGE('',*,*,#143,.F.);
#167=ORIENTED_EDGE('',*,*,#144,.F.);
#168=ORIENTED_EDGE('',*,*,#142,.T.);
#169=ORIENTED_EDGE('',*,*,#145,.F.);
#170=ORIENTED_EDGE('',*,*,#140,.F.);
#171=ORIENTED_EDGE('',*,*,#143,.T.);
#172=ORIENTED_EDGE('',*,*,#141,.T.);
#173=ORIENTED_EDGE('',*,*,#146,.F.);
#174=ORIENTED_EDGE('',*,*,#133,.F.);
#175=ORIENTED_EDGE('',*,*,#137,.F.);
#176=ORIENTED_EDGE('',*,*,#146,.T.);
#177=ORIENTED_EDGE('',*,*,#136,.T.);
#178=ORIENTED_EDGE('',*,*,#145,.T.);
#179=ORIENTED_EDGE('',*,*,#132,.F.);
#180=ORIENTED_EDGE('',*,*,#144,.T.);
#181=TOROIDAL_SURFACE('',#202,80.5,0.5);
#182=TOROIDAL_SURFACE('',#209,80.5,0.5);
#183=TOROIDAL_SURFACE('',#216,70.5,0.5);
#184=ADVANCED_FACE('',(#48,#30),#181,.T.);
#185=ADVANCED_FACE('',(#49,#31),#23,.F.);
#186=ADVANCED_FACE('',(#50,#32),#17,.T.);
#187=ADVANCED_FACE('',(#51,#33),#182,.T.);
#188=ADVANCED_FACE('',(#52,#34),#24,.F.);
#189=ADVANCED_FACE('',(#53,#35),#18,.F.);
#190=ADVANCED_FACE('',(#54,#36),#183,.T.);
#191=ADVANCED_FACE('',(#55,#37),#25,.F.);
#192=ADVANCED_FACE('',(#56,#38),#19,.T.);
#193=ADVANCED_FACE('',(#57,#39),#26,.F.);
#194=ADVANCED_FACE('',(#58,#40,#41),#27,.F.);
#195=ADVANCED_FACE('',(#59,#42),#20,.T.);
#196=ADVANCED_FACE('',(#60,#43),#28,.T.);
#197=ADVANCED_FACE('',(#61,#44,#45),#29,.T.);
#198=ADVANCED_FACE('',(#62,#46),#21,.F.);
#199=ADVANCED_FACE('',(#63,#47),#22,.T.);
#200=CLOSED_SHELL('',(#184,#185,#186,#187,#188,#189,#190,#191,#192,#193,
#194,#195,#196,#197,#198,#199));
#201=AXIS2_PLACEMENT_3D('placement',#297,#233,#234);
#202=AXIS2_PLACEMENT_3D('',#298,#235,#236);
#203=AXIS2_PLACEMENT_3D('',#300,#237,#238);
#204=AXIS2_PLACEMENT_3D('',#302,#239,#240);
#205=AXIS2_PLACEMENT_3D('',#303,#241,#242);
#206=AXIS2_PLACEMENT_3D('',#305,#243,#244);
#207=AXIS2_PLACEMENT_3D('',#306,#245,#246);
#208=AXIS2_PLACEMENT_3D('',#308,#247,#248);
#209=AXIS2_PLACEMENT_3D('',#309,#249,#250);
#210=AXIS2_PLACEMENT_3D('',#311,#251,#252);
#211=AXIS2_PLACEMENT_3D('',#313,#253,#254);
#212=AXIS2_PLACEMENT_3D('',#314,#255,#256);
#213=AXIS2_PLACEMENT_3D('',#316,#257,#258);
#214=AXIS2_PLACEMENT_3D('',#317,#259,#260);
#215=AXIS2_PLACEMENT_3D('',#319,#261,#262);
#216=AXIS2_PLACEMENT_3D('',#320,#263,#264);
#217=AXIS2_PLACEMENT_3D('',#322,#265,#266);
#218=AXIS2_PLACEMENT_3D('',#324,#267,#268);
#219=AXIS2_PLACEMENT_3D('',#325,#269,#270);
#220=AXIS2_PLACEMENT_3D('',#327,#271,#272);
#221=AXIS2_PLACEMENT_3D('',#328,#273,#274);
#222=AXIS2_PLACEMENT_3D('',#330,#275,#276);
#223=AXIS2_PLACEMENT_3D('',#331,#277,#278);
#224=AXIS2_PLACEMENT_3D('',#400,#279,#280);
#225=AXIS2_PLACEMENT_3D('',#401,#281,#282);
#226=AXIS2_PLACEMENT_3D('',#403,#283,#284);
#227=AXIS2_PLACEMENT_3D('',#405,#285,#286);
#228=AXIS2_PLACEMENT_3D('',#406,#287,#288);
#229=AXIS2_PLACEMENT_3D('',#407,#289,#290);
#230=AXIS2_PLACEMENT_3D('',#475,#291,#292);
#231=AXIS2_PLACEMENT_3D('',#476,#293,#294);
#232=AXIS2_PLACEMENT_3D('',#477,#295,#296);
#233=DIRECTION('axis',(0.,0.,1.));
#234=DIRECTION('refdir',(1.,0.,0.));
#235=DIRECTION('center_axis',(0.,0.,-1.));
#236=DIRECTION('ref_axis',(-1.,0.,0.));
#237=DIRECTION('center_axis',(0.,0.,-1.));
#238=DIRECTION('ref_axis',(-1.,0.,0.));
#239=DIRECTION('center_axis',(0.,0.,1.));
#240=DIRECTION('ref_axis',(-1.,0.,0.));
#241=DIRECTION('center_axis',(0.,0.,-1.));
#242=DIRECTION('ref_axis',(-1.,0.,0.));
#243=DIRECTION('center_axis',(0.,0.,-1.));
#244=DIRECTION('ref_axis',(-1.,0.,0.));
#245=DIRECTION('center_axis',(0.,0.,1.));
#246=DIRECTION('ref_axis',(1.,0.,0.));
#247=DIRECTION('center_axis',(0.,0.,1.));
#248=DIRECTION('ref_axis',(-1.,0.,0.));
#249=DIRECTION('center_axis',(0.,0.,1.));
#250=DIRECTION('ref_axis',(1.,0.,0.));
#251=DIRECTION('center_axis',(0.,0.,1.));
#252=DIRECTION('ref_axis',(-1.,0.,0.));
#253=DIRECTION('center_axis',(0.,0.,-1.));
#254=DIRECTION('ref_axis',(-1.,0.,0.));
#255=DIRECTION('center_axis',(0.,0.,-1.));
#256=DIRECTION('ref_axis',(-1.,0.,0.));
#257=DIRECTION('center_axis',(0.,0.,-1.));
#258=DIRECTION('ref_axis',(-1.,0.,0.));
#259=DIRECTION('center_axis',(0.,0.,1.));
#260=DIRECTION('ref_axis',(1.,0.,0.));
#261=DIRECTION('center_axis',(0.,0.,-1.));
#262=DIRECTION('ref_axis',(-1.,0.,0.));
#263=DIRECTION('center_axis',(0.,-1.,0.));
#264=DIRECTION('ref_axis',(0.,0.,-1.));
#265=DIRECTION('center_axis',(0.,-1.,0.));
#266=DIRECTION('ref_axis',(-1.,0.,0.));
#267=DIRECTION('center_axis',(0.,1.,0.));
#268=DIRECTION('ref_axis',(-1.,0.,0.));
#269=DIRECTION('center_axis',(0.,-1.,0.));
#270=DIRECTION('ref_axis',(-1.,0.,0.));
#271=DIRECTION('center_axis',(0.,-1.,0.));
#272=DIRECTION('ref_axis',(-1.,0.,0.));
#273=DIRECTION('center_axis',(0.,1.,0.));
#274=DIRECTION('ref_axis',(0.,0.,1.));
#275=DIRECTION('center_axis',(0.,-1.,0.));
#276=DIRECTION('ref_axis',(1.,0.,0.));
#277=DIRECTION('center_axis',(0.,-1.,0.));
#278=DIRECTION('ref_axis',(-1.,0.,0.));
#279=DIRECTION('center_axis',(0.,-1.,0.));
#280=DIRECTION('ref_axis',(-1.,0.,0.));
#281=DIRECTION('center_axis',(0.,0.,1.));
#282=DIRECTION('ref_axis',(1.,0.,0.));
#283=DIRECTION('center_axis',(0.,0.,-1.));
#284=DIRECTION('ref_axis',(1.,0.,0.));
#285=DIRECTION('center_axis',(0.,0.,1.));
#286=DIRECTION('ref_axis',(1.,0.,0.));
#287=DIRECTION('center_axis',(0.,1.,0.));
#288=DIRECTION('ref_axis',(0.,0.,1.));
#289=DIRECTION('center_axis',(0.,-1.,0.));
#290=DIRECTION('ref_axis',(1.,0.,0.));
#291=DIRECTION('center_axis',(0.,0.,1.));
#292=DIRECTION('ref_axis',(-1.,0.,0.));
#293=DIRECTION('center_axis',(0.,0.,1.));
#294=DIRECTION('ref_axis',(1.,0.,0.));
#295=DIRECTION('center_axis',(0.,0.,1.));
#296=DIRECTION('ref_axis',(1.,0.,0.));
#297=CARTESIAN_POINT('',(0.,0.,0.));
#298=CARTESIAN_POINT('Origin',(0.,0.,167.5));
#299=CARTESIAN_POINT('',(80.,-9.79717439317883E-15,167.5));
#300=CARTESIAN_POINT('Origin',(0.,0.,167.5));
#301=CARTESIAN_POINT('',(80.5,9.8584067331362E-15,168.));
#302=CARTESIAN_POINT('Origin',(0.,0.,168.));
#303=CARTESIAN_POINT('Origin',(0.,0.,168.));
#304=CARTESIAN_POINT('',(80.,9.79717439317883E-15,82.));
#305=CARTESIAN_POINT('Origin',(0.,0.,82.));
#306=CARTESIAN_POINT('Origin',(-3.51332608137565E-15,0.,168.));
#307=CARTESIAN_POINT('',(92.,1.12667505521556E-14,168.));
#308=CARTESIAN_POINT('Origin',(0.,0.,168.));
#309=CARTESIAN_POINT('Origin',(0.,0.,-167.5));
#310=CARTESIAN_POINT('',(80.,9.79717439317883E-15,-167.5));
#311=CARTESIAN_POINT('Origin',(0.,0.,-167.5));
#312=CARTESIAN_POINT('',(80.5,-9.8584067331362E-15,-168.));
#313=CARTESIAN_POINT('Origin',(0.,0.,-168.));
#314=CARTESIAN_POINT('Origin',(0.,0.,-168.));
#315=CARTESIAN_POINT('',(80.,9.79717439317883E-15,-82.));
#316=CARTESIAN_POINT('Origin',(0.,0.,-82.));
#317=CARTESIAN_POINT('Origin',(-3.51332608137565E-15,0.,-168.));
#318=CARTESIAN_POINT('',(92.,1.12667505521556E-14,-168.));
#319=CARTESIAN_POINT('Origin',(0.,0.,-168.));
#320=CARTESIAN_POINT('Origin',(0.,157.5,0.));
#321=CARTESIAN_POINT('',(70.,157.5,8.57252759403147E-15));
#322=CARTESIAN_POINT('Origin',(0.,157.5,0.));
#323=CARTESIAN_POINT('',(70.5,158.,-8.63375993398884E-15));
#324=CARTESIAN_POINT('Origin',(0.,158.,0.));
#325=CARTESIAN_POINT('Origin',(0.,158.,0.));
#326=CARTESIAN_POINT('',(70.,82.,-8.57252759403147E-15));
#327=CARTESIAN_POINT('Origin',(0.,82.,0.));
#328=CARTESIAN_POINT('Origin',(6.64394980188594E-15,158.,-1.45305262936626E-15));
#329=CARTESIAN_POINT('',(-81.5,158.,9.98087141305093E-15));
#330=CARTESIAN_POINT('Origin',(0.,158.,0.));
#331=CARTESIAN_POINT('Origin',(0.,82.,0.));
#332=CARTESIAN_POINT('',(69.,38.4707681233427,0.));
#333=CARTESIAN_POINT('Ctrl Pts',(69.,38.4707681233427,0.));
#334=CARTESIAN_POINT('Ctrl Pts',(69.,38.4707681233427,-4.90731868126843));
#335=CARTESIAN_POINT('Ctrl Pts',(68.4826120881426,39.4261819649033,-9.6076256964548));
#336=CARTESIAN_POINT('Ctrl Pts',(66.6003684997061,42.5286126203,-18.6162711908084));
#337=CARTESIAN_POINT('Ctrl Pts',(65.2322912527913,44.6590359627655,-22.9296424522627));
#338=CARTESIAN_POINT('Ctrl Pts',(61.7245218134146,49.3939683278118,-31.1625715542772));
#339=CARTESIAN_POINT('Ctrl Pts',(59.5821092558911,51.9980568963648,-35.0772274072493));
#340=CARTESIAN_POINT('Ctrl Pts',(54.6329505786237,57.1757499759715,-42.3754685238686));
#341=CARTESIAN_POINT('Ctrl Pts',(51.8240712179881,59.750682533526,-45.7566645857554));
#342=CARTESIAN_POINT('Ctrl Pts',(45.9291227102916,64.3797374219105,-51.6516130934519));
#343=CARTESIAN_POINT('Ctrl Pts',(42.6612051396076,66.6210837885045,-54.4086928514273));
#344=CARTESIAN_POINT('Ctrl Pts',(35.4194449773985,70.737614797736,-59.3780026683288));
#345=CARTESIAN_POINT('Ctrl Pts',(31.4449305149442,72.6117179096411,-61.5901494600888));
#346=CARTESIAN_POINT('Ctrl Pts',(22.9970534554206,75.7124890876365,-65.2170679266644));
#347=CARTESIAN_POINT('Ctrl Pts',(18.5134021682984,76.9416473669073,-66.6350965881309));
#348=CARTESIAN_POINT('Ctrl Pts',(9.32921038682081,78.5858065635982,-68.5269873189527));
#349=CARTESIAN_POINT('Ctrl Pts',(4.628350407813,79.,-69.));
#350=CARTESIAN_POINT('Ctrl Pts',(-4.62835040781301,79.,-69.));
#351=CARTESIAN_POINT('Ctrl Pts',(-9.32921038682082,78.5858065635982,-68.5269873189527));
#352=CARTESIAN_POINT('Ctrl Pts',(-18.5134021682984,76.9416473669073,-66.6350965881309));
#353=CARTESIAN_POINT('Ctrl Pts',(-22.9970534554207,75.7124890876365,-65.2170679266644));
#354=CARTESIAN_POINT('Ctrl Pts',(-31.4449305149442,72.611717909641,-61.5901494600888));
#355=CARTESIAN_POINT('Ctrl Pts',(-35.4194449773985,70.737614797736,-59.3780026683288));
#356=CARTESIAN_POINT('Ctrl Pts',(-42.6612051396076,66.6210837885045,-54.4086928514273));
#357=CARTESIAN_POINT('Ctrl Pts',(-45.9291227102916,64.3797374219105,-51.6516130934519));
#358=CARTESIAN_POINT('Ctrl Pts',(-51.8240712179881,59.750682533526,-45.7566645857554));
#359=CARTESIAN_POINT('Ctrl Pts',(-54.6329505786237,57.1757499759716,-42.3754685238686));
#360=CARTESIAN_POINT('Ctrl Pts',(-59.5821092558911,51.9980568963648,-35.0772274072493));
#361=CARTESIAN_POINT('Ctrl Pts',(-61.7245218134146,49.3939683278118,-31.1625715542772));
#362=CARTESIAN_POINT('Ctrl Pts',(-65.2322912527913,44.6590359627655,-22.9296424522627));
#363=CARTESIAN_POINT('Ctrl Pts',(-66.6003684997061,42.5286126203,-18.6162711908084));
#364=CARTESIAN_POINT('Ctrl Pts',(-68.4826120881426,39.4261819649033,-9.6076256964548));
#365=CARTESIAN_POINT('Ctrl Pts',(-69.,38.4707681233427,-4.90731868126843));
#366=CARTESIAN_POINT('Ctrl Pts',(-69.,38.4707681233427,4.90731868126844));
#367=CARTESIAN_POINT('Ctrl Pts',(-68.4826120881426,39.4261819649033,9.6076256964548));
#368=CARTESIAN_POINT('Ctrl Pts',(-66.6003684997061,42.5286126203,18.6162711908084));
#369=CARTESIAN_POINT('Ctrl Pts',(-65.2322912527913,44.6590359627655,22.9296424522627));
#370=CARTESIAN_POINT('Ctrl Pts',(-61.7245218134146,49.3939683278118,31.1625715542772));
#371=CARTESIAN_POINT('Ctrl Pts',(-59.5821092558911,51.9980568963648,35.0772274072493));
#372=CARTESIAN_POINT('Ctrl Pts',(-54.6329505786237,57.1757499759715,42.3754685238686));
#373=CARTESIAN_POINT('Ctrl Pts',(-51.8240712179881,59.750682533526,45.7566645857554));
#374=CARTESIAN_POINT('Ctrl Pts',(-45.9291227102916,64.3797374219105,51.6516130934519));
#375=CARTESIAN_POINT('Ctrl Pts',(-42.6612051396076,66.6210837885045,54.4086928514273));
#376=CARTESIAN_POINT('Ctrl Pts',(-35.4194449773985,70.737614797736,59.3780026683288));
#377=CARTESIAN_POINT('Ctrl Pts',(-31.4449305149442,72.6117179096411,61.5901494600888));
#378=CARTESIAN_POINT('Ctrl Pts',(-22.9970534554206,75.7124890876365,65.2170679266644));
#379=CARTESIAN_POINT('Ctrl Pts',(-18.5134021682984,76.9416473669073,66.6350965881309));
#380=CARTESIAN_POINT('Ctrl Pts',(-9.32921038682082,78.5858065635982,68.5269873189527));
#381=CARTESIAN_POINT('Ctrl Pts',(-4.62835040781301,79.,69.));
#382=CARTESIAN_POINT('Ctrl Pts',(4.628350407813,79.,69.));
#383=CARTESIAN_POINT('Ctrl Pts',(9.32921038682081,78.5858065635982,68.5269873189527));
#384=CARTESIAN_POINT('Ctrl Pts',(18.5134021682984,76.9416473669073,66.6350965881309));
#385=CARTESIAN_POINT('Ctrl Pts',(22.9970534554207,75.7124890876365,65.2170679266644));
#386=CARTESIAN_POINT('Ctrl Pts',(31.4449305149442,72.611717909641,61.5901494600888));
#387=CARTESIAN_POINT('Ctrl Pts',(35.4194449773985,70.737614797736,59.3780026683288));
#388=CARTESIAN_POINT('Ctrl Pts',(42.6612051396076,66.6210837885045,54.4086928514273));
#389=CARTESIAN_POINT('Ctrl Pts',(45.9291227102916,64.3797374219105,51.6516130934519));
#390=CARTESIAN_POINT('Ctrl Pts',(51.8240712179881,59.750682533526,45.7566645857554));
#391=CARTESIAN_POINT('Ctrl Pts',(54.6329505786237,57.1757499759715,42.3754685238685));
#392=CARTESIAN_POINT('Ctrl Pts',(59.5821092558911,51.9980568963648,35.0772274072493));
#393=CARTESIAN_POINT('Ctrl Pts',(61.7245218134146,49.3939683278118,31.1625715542772));
#394=CARTESIAN_POINT('Ctrl Pts',(65.2322912527913,44.6590359627655,22.9296424522627));
#395=CARTESIAN_POINT('Ctrl Pts',(66.6003684997061,42.5286126203,18.6162711908084));
#396=CARTESIAN_POINT('Ctrl Pts',(68.4826120881426,39.4261819649033,9.6076256964548));
#397=CARTESIAN_POINT('Ctrl Pts',(69.,38.4707681233427,4.90731868126843));
#398=CARTESIAN_POINT('Ctrl Pts',(69.,38.4707681233427,1.11022302462516E-15));
#399=CARTESIAN_POINT('',(69.,82.,-8.45006291411674E-15));
#400=CARTESIAN_POINT('Origin',(0.,82.,0.));
#401=CARTESIAN_POINT('Origin',(0.,0.,-82.));
#402=CARTESIAN_POINT('',(-79.,9.67470971326409E-15,82.));
#403=CARTESIAN_POINT('Origin',(0.,0.,82.));
#404=CARTESIAN_POINT('',(-79.,9.67470971326409E-15,-82.));
#405=CARTESIAN_POINT('Origin',(0.,0.,-82.));
#406=CARTESIAN_POINT('Origin',(-7.48145097340834E-15,82.,-1.69176841847643E-15));
#407=CARTESIAN_POINT('Origin',(0.,158.,0.));
#408=CARTESIAN_POINT('',(81.5,42.6819634037611,0.));
#409=CARTESIAN_POINT('Ctrl Pts',(81.5,42.6819634037611,0.));
#410=CARTESIAN_POINT('Ctrl Pts',(81.5,42.6819634037611,5.85074041610123));
#411=CARTESIAN_POINT('Ctrl Pts',(80.8808690282135,43.9005904037088,11.3988866272539));
#412=CARTESIAN_POINT('Ctrl Pts',(78.6580049095024,47.7691848915636,22.0129032482619));
#413=CARTESIAN_POINT('Ctrl Pts',(77.048557586597,50.400699919725,27.0842929961165));
#414=CARTESIAN_POINT('Ctrl Pts',(72.9172226301706,56.2119858360541,36.7848291544571));
#415=CARTESIAN_POINT('Ctrl Pts',(70.3926400792553,59.3915170745299,41.4036727070928));
#416=CARTESIAN_POINT('Ctrl Pts',(64.5483507695407,65.6961681256734,50.0289745735431));
#417=CARTESIAN_POINT('Ctrl Pts',(61.2261544540099,68.8233326135121,54.0322508793974));
#418=CARTESIAN_POINT('Ctrl Pts',(54.260284016941,74.4211022102562,60.9981213164662));
#419=CARTESIAN_POINT('Ctrl Pts',(50.4096092523716,77.1183121253029,64.249181868375));
#420=CARTESIAN_POINT('Ctrl Pts',(41.8690892314318,82.0691302378914,70.1146592725187));
#421=CARTESIAN_POINT('Ctrl Pts',(37.1784470348674,84.3215283934349,72.7289369859499));
#422=CARTESIAN_POINT('Ctrl Pts',(27.2013407843268,88.0479669366745,77.0183264960804));
#423=CARTESIAN_POINT('Ctrl Pts',(21.9026401616309,89.5250745080968,78.6973203615458));
#424=CARTESIAN_POINT('Ctrl Pts',(11.0420731810331,91.5015695605863,80.9386588623425));
#425=CARTESIAN_POINT('Ctrl Pts',(5.47982560463631,92.,81.5));
#426=CARTESIAN_POINT('Ctrl Pts',(-5.47982560463629,92.,81.5));
#427=CARTESIAN_POINT('Ctrl Pts',(-11.0420731810331,91.5015695605863,80.9386588623425));
#428=CARTESIAN_POINT('Ctrl Pts',(-21.9026401616309,89.5250745080968,78.6973203615458));
#429=CARTESIAN_POINT('Ctrl Pts',(-27.2013407843268,88.0479669366745,77.0183264960804));
#430=CARTESIAN_POINT('Ctrl Pts',(-37.1784470348674,84.3215283934349,72.7289369859499));
#431=CARTESIAN_POINT('Ctrl Pts',(-41.8690892314318,82.0691302378914,70.1146592725187));
#432=CARTESIAN_POINT('Ctrl Pts',(-50.4096092523716,77.1183121253029,64.249181868375));
#433=CARTESIAN_POINT('Ctrl Pts',(-54.260284016941,74.4211022102562,60.9981213164662));
#434=CARTESIAN_POINT('Ctrl Pts',(-61.2261544540099,68.8233326135121,54.0322508793974));
#435=CARTESIAN_POINT('Ctrl Pts',(-64.5483507695407,65.6961681256734,50.028974573543));
#436=CARTESIAN_POINT('Ctrl Pts',(-70.3926400792553,59.3915170745299,41.4036727070927));
#437=CARTESIAN_POINT('Ctrl Pts',(-72.9172226301706,56.2119858360541,36.7848291544572));
#438=CARTESIAN_POINT('Ctrl Pts',(-77.048557586597,50.400699919725,27.0842929961165));
#439=CARTESIAN_POINT('Ctrl Pts',(-78.6580049095024,47.7691848915636,22.0129032482619));
#440=CARTESIAN_POINT('Ctrl Pts',(-80.8808690282135,43.9005904037088,11.3988866272539));
#441=CARTESIAN_POINT('Ctrl Pts',(-81.5,42.6819634037611,5.85074041610124));
#442=CARTESIAN_POINT('Ctrl Pts',(-81.5,42.6819634037611,-5.85074041610123));
#443=CARTESIAN_POINT('Ctrl Pts',(-80.8808690282135,43.9005904037088,-11.3988866272539));
#444=CARTESIAN_POINT('Ctrl Pts',(-78.6580049095024,47.7691848915636,-22.0129032482619));
#445=CARTESIAN_POINT('Ctrl Pts',(-77.0485575865971,50.4006999197249,-27.0842929961165));
#446=CARTESIAN_POINT('Ctrl Pts',(-72.9172226301706,56.2119858360541,-36.7848291544572));
#447=CARTESIAN_POINT('Ctrl Pts',(-70.3926400792553,59.3915170745299,-41.4036727070928));
#448=CARTESIAN_POINT('Ctrl Pts',(-64.5483507695407,65.6961681256734,-50.0289745735431));
#449=CARTESIAN_POINT('Ctrl Pts',(-61.2261544540099,68.8233326135121,-54.0322508793974));
#450=CARTESIAN_POINT('Ctrl Pts',(-54.2602840169411,74.4211022102562,-60.9981213164662));
#451=CARTESIAN_POINT('Ctrl Pts',(-50.4096092523716,77.1183121253029,-64.249181868375));
#452=CARTESIAN_POINT('Ctrl Pts',(-41.8690892314318,82.0691302378914,-70.1146592725187));
#453=CARTESIAN_POINT('Ctrl Pts',(-37.1784470348674,84.3215283934349,-72.7289369859499));
#454=CARTESIAN_POINT('Ctrl Pts',(-27.2013407843268,88.0479669366745,-77.0183264960804));
#455=CARTESIAN_POINT('Ctrl Pts',(-21.9026401616309,89.5250745080968,-78.6973203615458));
#456=CARTESIAN_POINT('Ctrl Pts',(-11.0420731810331,91.5015695605863,-80.9386588623425));
#457=CARTESIAN_POINT('Ctrl Pts',(-5.47982560463631,92.,-81.5));
#458=CARTESIAN_POINT('Ctrl Pts',(5.47982560463629,92.,-81.5));
#459=CARTESIAN_POINT('Ctrl Pts',(11.0420731810331,91.5015695605863,-80.9386588623425));
#460=CARTESIAN_POINT('Ctrl Pts',(21.9026401616309,89.5250745080968,-78.6973203615458));
#461=CARTESIAN_POINT('Ctrl Pts',(27.2013407843268,88.0479669366745,-77.0183264960804));
#462=CARTESIAN_POINT('Ctrl Pts',(37.1784470348674,84.3215283934349,-72.7289369859499));
#463=CARTESIAN_POINT('Ctrl Pts',(41.8690892314317,82.0691302378914,-70.1146592725187));
#464=CARTESIAN_POINT('Ctrl Pts',(50.4096092523716,77.118312125303,-64.249181868375));
#465=CARTESIAN_POINT('Ctrl Pts',(54.260284016941,74.4211022102563,-60.9981213164662));
#466=CARTESIAN_POINT('Ctrl Pts',(61.2261544540099,68.8233326135121,-54.0322508793974));
#467=CARTESIAN_POINT('Ctrl Pts',(64.5483507695407,65.6961681256734,-50.0289745735431));
#468=CARTESIAN_POINT('Ctrl Pts',(70.3926400792553,59.39151707453,-41.4036727070928));
#469=CARTESIAN_POINT('Ctrl Pts',(72.9172226301706,56.2119858360541,-36.7848291544572));
#470=CARTESIAN_POINT('Ctrl Pts',(77.048557586597,50.400699919725,-27.0842929961165));
#471=CARTESIAN_POINT('Ctrl Pts',(78.6580049095024,47.7691848915636,-22.0129032482619));
#472=CARTESIAN_POINT('Ctrl Pts',(80.8808690282135,43.9005904037088,-11.3988866272539));
#473=CARTESIAN_POINT('Ctrl Pts',(81.5,42.6819634037611,-5.85074041610123));
#474=CARTESIAN_POINT('Ctrl Pts',(81.5,42.6819634037611,1.88737914186277E-14));
#475=CARTESIAN_POINT('Origin',(0.,0.,0.));
#476=CARTESIAN_POINT('Origin',(-3.77702593176532E-15,0.,-82.));
#477=CARTESIAN_POINT('Origin',(-3.77702593176532E-15,0.,82.));
#478=UNCERTAINTY_MEASURE_WITH_UNIT(LENGTH_MEASURE(0.01),#482,
'DISTANCE_ACCURACY_VALUE',
'Maximum model space distance between geometric entities at asserted c
onnectivities');
#479=UNCERTAINTY_MEASURE_WITH_UNIT(LENGTH_MEASURE(1.E-6),#482,
'DISTANCE_ACCURACY_VALUE',
'Maximum model space distance between geometric entities at asserted c
onnectivities');
#480=(
GEOMETRIC_REPRESENTATION_CONTEXT(3)
GLOBAL_UNCERTAINTY_ASSIGNED_CONTEXT((#478))
GLOBAL_UNIT_ASSIGNED_CONTEXT((#482,#485,#483))
REPRESENTATION_CONTEXT('','3D')
);
#481=(
GEOMETRIC_REPRESENTATION_CONTEXT(3)
GLOBAL_UNCERTAINTY_ASSIGNED_CONTEXT((#479))
GLOBAL_UNIT_ASSIGNED_CONTEXT((#482,#485,#483))
REPRESENTATION_CONTEXT('','3D')
);
#482=(
LENGTH_UNIT()
NAMED_UNIT(*)
SI_UNIT(.MILLI.,.METRE.)
);
#483=(
NAMED_UNIT(*)
SI_UNIT($,.STERADIAN.)
SOLID_ANGLE_UNIT()
);
#484=DIMENSIONAL_EXPONENTS(0.,0.,0.,0.,0.,0.,0.);
#485=(
CONVERSION_BASED_UNIT('degree',#487)
NAMED_UNIT(#484)
PLANE_ANGLE_UNIT()
);
#486=(
NAMED_UNIT(*)
PLANE_ANGLE_UNIT()
SI_UNIT($,.RADIAN.)
);
#487=PLANE_ANGLE_MEASURE_WITH_UNIT(PLANE_ANGLE_MEASURE(0.01745329252),#486);
#488=SHAPE_DEFINITION_REPRESENTATION(#489,#490);
#489=PRODUCT_DEFINITION_SHAPE('',$,#492);
#490=SHAPE_REPRESENTATION('',(#201),#480);
#491=PRODUCT_DEFINITION_CONTEXT('part definition',#496,'design');
#492=PRODUCT_DEFINITION('TR40160N','TR40160N',#493,#491);
#493=PRODUCT_DEFINITION_FORMATION('',$,#498);
#494=PRODUCT_RELATED_PRODUCT_CATEGORY('TR40160N','TR40160N',(#498));
#495=APPLICATION_PROTOCOL_DEFINITION('international standard',
'automotive_design',2009,#496);
#496=APPLICATION_CONTEXT(
'Core Data for Automotive Mechanical Design Process');
#497=PRODUCT_CONTEXT('part definition',#496,'mechanical');
#498=PRODUCT('TR40160N','TR40160N',$,(#497));
#499=PRESENTATION_STYLE_ASSIGNMENT((#500));
#500=SURFACE_STYLE_USAGE(.BOTH.,#501);
#501=SURFACE_SIDE_STYLE('',(#502));
#502=SURFACE_STYLE_FILL_AREA(#503);
#503=FILL_AREA_STYLE('',(#504));
#504=FILL_AREA_STYLE_COLOUR('',#505);
#505=COLOUR_RGB('',0.8,0.8,0.8);
ENDSEC;
END-ISO-10303-21;
