ISO-10303-21;
HEADER;
/* Generated by software containing ST-Developer
 * from STEP Tools, Inc. (www.steptools.com) 
 */

FILE_DESCRIPTION(
/* description */ (''),
/* implementation_level */ '2;1');

FILE_NAME(
/* name */ 
'Q:\\Ric010\\FF7\\FIPlastiCAD\\FIP\\Lavoro\\PVC Fittings\\PVC Fittings
 STEP\\TRIV\\TRIV050020.ipt.stp',
/* time_stamp */ '2013-10-01T14:56:26+02:00',
/* author */ ('bfaro'),
/* organization */ (''),
/* preprocessor_version */ 'ST-DEVELOPER v15.2',
/* originating_system */ 'Autodesk Inventor 2014',
/* authorisation */ '');

FILE_SCHEMA (('AUTOMOTIVE_DESIGN { 1 0 10303 214 3 1 1 }'));
ENDSEC;

DATA;
#10=SHAPE_REPRESENTATION_RELATIONSHIP('SRR','None',#403,#11);
#11=ADVANCED_BREP_SHAPE_REPRESENTATION($,(#181),#394);
#12=STYLED_ITEM($,(#411),#181);
#13=PLANE($,#202);
#14=PLANE($,#203);
#15=PLANE($,#204);
#16=PLANE($,#205);
#17=PLANE($,#206);
#18=PLANE($,#207);
#19=FACE_BOUND($,#53,.T.);
#20=FACE_BOUND($,#55,.T.);
#21=FACE_BOUND($,#56,.T.);
#22=FACE_BOUND($,#58,.T.);
#23=FACE_BOUND($,#59,.T.);
#24=FACE_BOUND($,#61,.T.);
#25=FACE_BOUND($,#63,.T.);
#26=FACE_BOUND($,#65,.T.);
#27=FACE_BOUND($,#67,.T.);
#28=FACE_BOUND($,#69,.T.);
#29=FACE_BOUND($,#70,.T.);
#30=FACE_BOUND($,#71,.T.);
#31=FACE_BOUND($,#73,.T.);
#32=FACE_BOUND($,#75,.T.);
#33=FACE_BOUND($,#76,.T.);
#34=FACE_BOUND($,#77,.T.);
#35=FACE_BOUND($,#78,.T.);
#36=FACE_BOUND($,#79,.T.);
#37=B_SPLINE_CURVE_WITH_KNOTS($,3,(#265,#266,#267,#268,#269,#270,#271,#272,
#273,#274,#275,#276,#277,#278,#279,#280,#281,#282,#283,#284,#285,#286,#287,
#288,#289,#290,#291,#292,#293,#294,#295,#296,#297,#298),.UNSPECIFIED.,.T.,
 .F.,(4,2,2,2,2,2,2,2,2,2,2,2,2,2,2,2,4),(0.,0.362371475314153,0.724742950628306,
1.0867641040126,1.4487852573969,1.81080641078119,2.17282756416549,2.53519903947964,
2.89757051479379,3.25994199010361,3.62231346541343,3.98433461879641,4.34635577217939,
4.70837692556237,5.07039807894536,5.43276955425517,5.79514102956499),
 .UNSPECIFIED.);
#38=B_SPLINE_CURVE_WITH_KNOTS($,3,(#311,#312,#313,#314,#315,#316,#317,#318,
#319,#320,#321,#322,#323,#324),.UNSPECIFIED.,.F.,.F.,(4,2,2,2,2,2,4),(4.60923778741834,
4.89767976414549,5.18612174087263,5.76300569432692,6.33843118771585,6.62614393441032,
6.91385668110479),.UNSPECIFIED.);
#39=B_SPLINE_CURVE_WITH_KNOTS($,3,(#326,#327,#328,#329,#330,#331,#332,#333,
#334,#335,#336,#337,#338,#339),.UNSPECIFIED.,.F.,.F.,(4,2,2,2,2,2,4),(-4.60923778741834,
-4.32079581068947,-4.0323538339606,-3.45546988050286,-2.88004438710601,
-2.59233164040758,-2.30461889370916),.UNSPECIFIED.);
#40=B_SPLINE_CURVE_WITH_KNOTS($,3,(#341,#342,#343,#344,#345,#346,#347,#348,
#349,#350,#351,#352,#353,#354),.UNSPECIFIED.,.F.,.F.,(4,2,2,2,2,2,4),(6.91385668108211,
7.20156942778054,7.48928217447897,8.06470766787582,8.64159162133356,8.93003359806243,
9.2184755747913),.UNSPECIFIED.);
#41=B_SPLINE_CURVE_WITH_KNOTS($,3,(#355,#356,#357,#358,#359,#360,#361,#362,
#363,#364,#365,#366,#367,#368),.UNSPECIFIED.,.F.,.F.,(4,2,2,2,2,2,4),(-2.30461889368648,
-2.01690614699201,-1.72919340029754,-1.15376790690861,-0.576883953454318,
-0.288441976727174,-3.01980662698043E-014),.UNSPECIFIED.);
#42=FACE_OUTER_BOUND($,#52,.T.);
#43=FACE_OUTER_BOUND($,#54,.T.);
#44=FACE_OUTER_BOUND($,#57,.T.);
#45=FACE_OUTER_BOUND($,#60,.T.);
#46=FACE_OUTER_BOUND($,#62,.T.);
#47=FACE_OUTER_BOUND($,#64,.T.);
#48=FACE_OUTER_BOUND($,#66,.T.);
#49=FACE_OUTER_BOUND($,#68,.T.);
#50=FACE_OUTER_BOUND($,#72,.T.);
#51=FACE_OUTER_BOUND($,#74,.T.);
#52=EDGE_LOOP($,(#126));
#53=EDGE_LOOP($,(#127));
#54=EDGE_LOOP($,(#128));
#55=EDGE_LOOP($,(#129));
#56=EDGE_LOOP($,(#130));
#57=EDGE_LOOP($,(#131));
#58=EDGE_LOOP($,(#132));
#59=EDGE_LOOP($,(#133,#134,#135,#136));
#60=EDGE_LOOP($,(#137));
#61=EDGE_LOOP($,(#138));
#62=EDGE_LOOP($,(#139,#140,#141,#142));
#63=EDGE_LOOP($,(#143));
#64=EDGE_LOOP($,(#144));
#65=EDGE_LOOP($,(#145));
#66=EDGE_LOOP($,(#146));
#67=EDGE_LOOP($,(#147));
#68=EDGE_LOOP($,(#148));
#69=EDGE_LOOP($,(#149));
#70=EDGE_LOOP($,(#150));
#71=EDGE_LOOP($,(#151));
#72=EDGE_LOOP($,(#152));
#73=EDGE_LOOP($,(#153));
#74=EDGE_LOOP($,(#154));
#75=EDGE_LOOP($,(#155));
#76=EDGE_LOOP($,(#156));
#77=EDGE_LOOP($,(#157));
#78=EDGE_LOOP($,(#158));
#79=EDGE_LOOP($,(#159));
#80=CIRCLE($,#184,9.5);
#81=CIRCLE($,#186,24.);
#82=CIRCLE($,#187,24.);
#83=CIRCLE($,#189,30.5);
#84=CIRCLE($,#190,30.5);
#85=CIRCLE($,#192,25.);
#86=CIRCLE($,#193,25.);
#87=CIRCLE($,#195,15.);
#88=CIRCLE($,#197,25.);
#89=CIRCLE($,#198,25.);
#90=CIRCLE($,#200,10.);
#91=CIRCLE($,#201,10.);
#92=VERTEX_POINT($,#262);
#93=VERTEX_POINT($,#264);
#94=VERTEX_POINT($,#300);
#95=VERTEX_POINT($,#302);
#96=VERTEX_POINT($,#305);
#97=VERTEX_POINT($,#307);
#98=VERTEX_POINT($,#309);
#99=VERTEX_POINT($,#310);
#100=VERTEX_POINT($,#325);
#101=VERTEX_POINT($,#340);
#102=VERTEX_POINT($,#370);
#103=VERTEX_POINT($,#372);
#104=VERTEX_POINT($,#375);
#105=VERTEX_POINT($,#378);
#106=VERTEX_POINT($,#380);
#107=VERTEX_POINT($,#383);
#108=VERTEX_POINT($,#385);
#109=EDGE_CURVE($,#92,#92,#80,.T.);
#110=EDGE_CURVE($,#93,#93,#37,.T.);
#111=EDGE_CURVE($,#94,#94,#81,.T.);
#112=EDGE_CURVE($,#95,#95,#82,.T.);
#113=EDGE_CURVE($,#96,#96,#83,.T.);
#114=EDGE_CURVE($,#97,#97,#84,.T.);
#115=EDGE_CURVE($,#98,#99,#38,.T.);
#116=EDGE_CURVE($,#98,#100,#39,.T.);
#117=EDGE_CURVE($,#100,#101,#40,.T.);
#118=EDGE_CURVE($,#99,#101,#41,.T.);
#119=EDGE_CURVE($,#102,#102,#85,.T.);
#120=EDGE_CURVE($,#103,#103,#86,.T.);
#121=EDGE_CURVE($,#104,#104,#87,.T.);
#122=EDGE_CURVE($,#105,#105,#88,.T.);
#123=EDGE_CURVE($,#106,#106,#89,.T.);
#124=EDGE_CURVE($,#107,#107,#90,.T.);
#125=EDGE_CURVE($,#108,#108,#91,.T.);
#126=ORIENTED_EDGE($,*,*,#109,.F.);
#127=ORIENTED_EDGE($,*,*,#110,.F.);
#128=ORIENTED_EDGE($,*,*,#111,.F.);
#129=ORIENTED_EDGE($,*,*,#112,.F.);
#130=ORIENTED_EDGE($,*,*,#110,.T.);
#131=ORIENTED_EDGE($,*,*,#113,.F.);
#132=ORIENTED_EDGE($,*,*,#114,.T.);
#133=ORIENTED_EDGE($,*,*,#115,.F.);
#134=ORIENTED_EDGE($,*,*,#116,.T.);
#135=ORIENTED_EDGE($,*,*,#117,.T.);
#136=ORIENTED_EDGE($,*,*,#118,.F.);
#137=ORIENTED_EDGE($,*,*,#119,.T.);
#138=ORIENTED_EDGE($,*,*,#120,.F.);
#139=ORIENTED_EDGE($,*,*,#116,.F.);
#140=ORIENTED_EDGE($,*,*,#115,.T.);
#141=ORIENTED_EDGE($,*,*,#118,.T.);
#142=ORIENTED_EDGE($,*,*,#117,.F.);
#143=ORIENTED_EDGE($,*,*,#121,.F.);
#144=ORIENTED_EDGE($,*,*,#122,.T.);
#145=ORIENTED_EDGE($,*,*,#123,.F.);
#146=ORIENTED_EDGE($,*,*,#124,.T.);
#147=ORIENTED_EDGE($,*,*,#125,.F.);
#148=ORIENTED_EDGE($,*,*,#114,.F.);
#149=ORIENTED_EDGE($,*,*,#120,.T.);
#150=ORIENTED_EDGE($,*,*,#112,.T.);
#151=ORIENTED_EDGE($,*,*,#119,.F.);
#152=ORIENTED_EDGE($,*,*,#113,.T.);
#153=ORIENTED_EDGE($,*,*,#122,.F.);
#154=ORIENTED_EDGE($,*,*,#121,.T.);
#155=ORIENTED_EDGE($,*,*,#124,.F.);
#156=ORIENTED_EDGE($,*,*,#111,.T.);
#157=ORIENTED_EDGE($,*,*,#123,.T.);
#158=ORIENTED_EDGE($,*,*,#109,.T.);
#159=ORIENTED_EDGE($,*,*,#125,.T.);
#160=CYLINDRICAL_SURFACE($,#183,9.5);
#161=CYLINDRICAL_SURFACE($,#185,24.);
#162=CYLINDRICAL_SURFACE($,#188,30.5);
#163=CYLINDRICAL_SURFACE($,#191,25.);
#164=CYLINDRICAL_SURFACE($,#194,15.);
#165=CYLINDRICAL_SURFACE($,#196,25.);
#166=CYLINDRICAL_SURFACE($,#199,10.);
#167=ADVANCED_FACE($,(#42,#19),#160,.F.);
#168=ADVANCED_FACE($,(#43,#20,#21),#161,.F.);
#169=ADVANCED_FACE($,(#44,#22,#23),#162,.T.);
#170=ADVANCED_FACE($,(#45,#24),#163,.F.);
#171=ADVANCED_FACE($,(#46,#25),#164,.T.);
#172=ADVANCED_FACE($,(#47,#26),#165,.F.);
#173=ADVANCED_FACE($,(#48,#27),#166,.F.);
#174=ADVANCED_FACE($,(#49,#28),#13,.T.);
#175=ADVANCED_FACE($,(#29,#30),#14,.T.);
#176=ADVANCED_FACE($,(#50,#31),#15,.T.);
#177=ADVANCED_FACE($,(#51,#32),#16,.T.);
#178=ADVANCED_FACE($,(#33,#34),#17,.T.);
#179=ADVANCED_FACE($,(#35,#36),#18,.T.);
#180=CLOSED_SHELL($,(#167,#168,#169,#170,#171,#172,#173,#174,#175,#176,
#177,#178,#179));
#181=MANIFOLD_SOLID_BREP('Solido1',#180);
#182=AXIS2_PLACEMENT_3D('placement',#260,#208,#209);
#183=AXIS2_PLACEMENT_3D($,#261,#210,#211);
#184=AXIS2_PLACEMENT_3D($,#263,#212,#213);
#185=AXIS2_PLACEMENT_3D($,#299,#214,#215);
#186=AXIS2_PLACEMENT_3D($,#301,#216,#217);
#187=AXIS2_PLACEMENT_3D($,#303,#218,#219);
#188=AXIS2_PLACEMENT_3D($,#304,#220,#221);
#189=AXIS2_PLACEMENT_3D($,#306,#222,#223);
#190=AXIS2_PLACEMENT_3D($,#308,#224,#225);
#191=AXIS2_PLACEMENT_3D($,#369,#226,#227);
#192=AXIS2_PLACEMENT_3D($,#371,#228,#229);
#193=AXIS2_PLACEMENT_3D($,#373,#230,#231);
#194=AXIS2_PLACEMENT_3D($,#374,#232,#233);
#195=AXIS2_PLACEMENT_3D($,#376,#234,#235);
#196=AXIS2_PLACEMENT_3D($,#377,#236,#237);
#197=AXIS2_PLACEMENT_3D($,#379,#238,#239);
#198=AXIS2_PLACEMENT_3D($,#381,#240,#241);
#199=AXIS2_PLACEMENT_3D($,#382,#242,#243);
#200=AXIS2_PLACEMENT_3D($,#384,#244,#245);
#201=AXIS2_PLACEMENT_3D($,#386,#246,#247);
#202=AXIS2_PLACEMENT_3D($,#387,#248,#249);
#203=AXIS2_PLACEMENT_3D($,#388,#250,#251);
#204=AXIS2_PLACEMENT_3D($,#389,#252,#253);
#205=AXIS2_PLACEMENT_3D($,#390,#254,#255);
#206=AXIS2_PLACEMENT_3D($,#391,#256,#257);
#207=AXIS2_PLACEMENT_3D($,#392,#258,#259);
#208=DIRECTION('axis',(0.,0.,1.));
#209=DIRECTION('refdir',(1.,0.,0.));
#210=DIRECTION('center_axis',(-1.,0.,-4.48966210397794E-011));
#211=DIRECTION('ref_axis',(-4.48966210397794E-011,0.,1.));
#212=DIRECTION('center_axis',(-1.,0.,-4.489664E-011));
#213=DIRECTION('ref_axis',(-4.48966210397794E-011,0.,1.));
#214=DIRECTION('center_axis',(0.,0.,-1.));
#215=DIRECTION('ref_axis',(-1.,0.,0.));
#216=DIRECTION('center_axis',(0.,0.,-1.));
#217=DIRECTION('ref_axis',(-1.,0.,0.));
#218=DIRECTION('center_axis',(0.,0.,1.));
#219=DIRECTION('ref_axis',(-1.,0.,0.));
#220=DIRECTION('center_axis',(0.,0.,1.));
#221=DIRECTION('ref_axis',(1.,0.,0.));
#222=DIRECTION('center_axis',(0.,0.,1.));
#223=DIRECTION('ref_axis',(1.,0.,0.));
#224=DIRECTION('center_axis',(0.,0.,1.));
#225=DIRECTION('ref_axis',(1.,0.,0.));
#226=DIRECTION('center_axis',(0.,0.,1.));
#227=DIRECTION('ref_axis',(1.,0.,0.));
#228=DIRECTION('center_axis',(0.,0.,1.));
#229=DIRECTION('ref_axis',(1.,0.,0.));
#230=DIRECTION('center_axis',(0.,0.,1.));
#231=DIRECTION('ref_axis',(1.,0.,0.));
#232=DIRECTION('center_axis',(1.,0.,4.489664E-011));
#233=DIRECTION('ref_axis',(4.489664E-011,0.,-1.));
#234=DIRECTION('center_axis',(1.,0.,4.489664E-011));
#235=DIRECTION('ref_axis',(4.489664E-011,0.,-1.));
#236=DIRECTION('center_axis',(0.,0.,1.));
#237=DIRECTION('ref_axis',(1.,0.,0.));
#238=DIRECTION('center_axis',(0.,0.,1.));
#239=DIRECTION('ref_axis',(1.,0.,0.));
#240=DIRECTION('center_axis',(0.,0.,1.));
#241=DIRECTION('ref_axis',(1.,0.,0.));
#242=DIRECTION('center_axis',(1.,2.21565352695148E-015,4.48978228333048E-011));
#243=DIRECTION('ref_axis',(4.48978632050512E-011,0.,-1.));
#244=DIRECTION('center_axis',(1.,0.,4.489664E-011));
#245=DIRECTION('ref_axis',(4.489664E-011,0.,-1.));
#246=DIRECTION('center_axis',(1.,0.,4.489664E-011));
#247=DIRECTION('ref_axis',(4.489664E-011,0.,-1.));
#248=DIRECTION('center_axis',(0.,0.,-1.));
#249=DIRECTION('ref_axis',(-1.,0.,0.));
#250=DIRECTION('center_axis',(0.,0.,-1.));
#251=DIRECTION('ref_axis',(-1.,0.,0.));
#252=DIRECTION('center_axis',(0.,0.,1.));
#253=DIRECTION('ref_axis',(1.,0.,0.));
#254=DIRECTION('center_axis',(1.,0.,4.489664E-011));
#255=DIRECTION('ref_axis',(4.48963533017377E-011,0.,-1.));
#256=DIRECTION('center_axis',(0.,0.,1.));
#257=DIRECTION('ref_axis',(1.,0.,0.));
#258=DIRECTION('center_axis',(1.,0.,4.489664E-011));
#259=DIRECTION('ref_axis',(4.48967085731056E-011,0.,-1.));
#260=CARTESIAN_POINT('',(0.,0.,0.));
#261=CARTESIAN_POINT('Origin',(27.,0.,58.000000001212));
#262=CARTESIAN_POINT('',(27.0000000004265,1.16341445918999E-015,48.500000001212));
#263=CARTESIAN_POINT('Origin',(27.,0.,58.000000001212));
#264=CARTESIAN_POINT('',(22.0397368405342,9.5,58.0000000009893));
#265=CARTESIAN_POINT('Ctrl Pts',(22.0397368405342,9.5,58.0000000009893));
#266=CARTESIAN_POINT('Ctrl Pts',(22.0397368405342,9.5,59.2079049187032));
#267=CARTESIAN_POINT('Ctrl Pts',(22.1495371092574,9.25587974166694,60.4858693196333));
#268=CARTESIAN_POINT('Ctrl Pts',(22.5315660995373,8.28262122179506,62.8217283693501));
#269=CARTESIAN_POINT('Ctrl Pts',(22.7968358966472,7.55404071664265,63.8809881269281));
#270=CARTESIAN_POINT('Ctrl Pts',(23.2843779541909,5.88179683607177,65.5532320075148));
#271=CARTESIAN_POINT('Ctrl Pts',(23.5402623300528,4.82222984802497,66.282426490543));
#272=CARTESIAN_POINT('Ctrl Pts',(23.900245773818,2.48517672657929,67.2561541027698));
#273=CARTESIAN_POINT('Ctrl Pts',(24.,1.20673717794765,67.5000000010773));
#274=CARTESIAN_POINT('Ctrl Pts',(24.,-1.20673717794765,67.5000000010773));
#275=CARTESIAN_POINT('Ctrl Pts',(23.900245773818,-2.48517672657929,67.2561541027698));
#276=CARTESIAN_POINT('Ctrl Pts',(23.5402623300528,-4.82222984802497,66.282426490543));
#277=CARTESIAN_POINT('Ctrl Pts',(23.2843779541909,-5.88179683607177,65.5532320075148));
#278=CARTESIAN_POINT('Ctrl Pts',(22.7968358966472,-7.55404071664265,63.8809881269281));
#279=CARTESIAN_POINT('Ctrl Pts',(22.5315660995373,-8.28262122179506,62.8217283693501));
#280=CARTESIAN_POINT('Ctrl Pts',(22.1495371092574,-9.25587974166694,60.4858693196333));
#281=CARTESIAN_POINT('Ctrl Pts',(22.0397368405342,-9.5,59.2079049187032));
#282=CARTESIAN_POINT('Ctrl Pts',(22.0397368405342,-9.5,56.7920950832899));
#283=CARTESIAN_POINT('Ctrl Pts',(22.1495371092553,-9.25587974167188,55.514130682374));
#284=CARTESIAN_POINT('Ctrl Pts',(22.5315660995334,-8.28262122180559,53.178271632691));
#285=CARTESIAN_POINT('Ctrl Pts',(22.7968358966435,-7.55404071665373,52.1190118751326));
#286=CARTESIAN_POINT('Ctrl Pts',(23.2843779541896,-5.88179683607791,50.4467679945787));
#287=CARTESIAN_POINT('Ctrl Pts',(23.5402623300529,-4.82222984802511,49.71757351157));
#288=CARTESIAN_POINT('Ctrl Pts',(23.9002457738187,-2.48517672657402,48.7438458993741));
#289=CARTESIAN_POINT('Ctrl Pts',(24.,-1.20673717794328,48.5000000010773));
#290=CARTESIAN_POINT('Ctrl Pts',(24.,1.20673717794327,48.5000000010773));
#291=CARTESIAN_POINT('Ctrl Pts',(23.9002457738187,2.48517672657402,48.7438458993741));
#292=CARTESIAN_POINT('Ctrl Pts',(23.5402623300529,4.82222984802511,49.7175735115699));
#293=CARTESIAN_POINT('Ctrl Pts',(23.2843779541896,5.88179683607791,50.4467679945787));
#294=CARTESIAN_POINT('Ctrl Pts',(22.7968358966435,7.55404071665373,52.1190118751326));
#295=CARTESIAN_POINT('Ctrl Pts',(22.5315660995334,8.28262122180559,53.178271632691));
#296=CARTESIAN_POINT('Ctrl Pts',(22.1495371092553,9.25587974167188,55.514130682374));
#297=CARTESIAN_POINT('Ctrl Pts',(22.0397368405342,9.5,56.7920950832899));
#298=CARTESIAN_POINT('Ctrl Pts',(22.0397368405342,9.5,58.0000000009893));
#299=CARTESIAN_POINT('Origin',(0.,0.,85.));
#300=CARTESIAN_POINT('',(24.,2.93915231795365E-015,85.));
#301=CARTESIAN_POINT('Origin',(0.,0.,85.));
#302=CARTESIAN_POINT('',(24.,2.93915231795365E-015,31.));
#303=CARTESIAN_POINT('Origin',(0.,0.,31.));
#304=CARTESIAN_POINT('Origin',(0.,0.,0.));
#305=CARTESIAN_POINT('',(-30.5,-3.735049E-015,116.));
#306=CARTESIAN_POINT('Origin',(0.,0.,116.));
#307=CARTESIAN_POINT('',(30.5,-7.470099E-015,0.));
#308=CARTESIAN_POINT('Origin',(0.,0.,0.));
#309=CARTESIAN_POINT('',(26.556543449779,-15.,58.000000001192));
#310=CARTESIAN_POINT('',(30.5,-5.571959E-015,43.000000001369));
#311=CARTESIAN_POINT('Ctrl Pts',(26.556543449779,-15.,58.0000000011923));
#312=CARTESIAN_POINT('Ctrl Pts',(26.556543449779,-15.,57.0385267454352));
#313=CARTESIAN_POINT('Ctrl Pts',(26.6102840910166,-14.9061012318093,56.0510435158344));
#314=CARTESIAN_POINT('Ctrl Pts',(26.8239945305762,-14.5180022921722,54.0989879558787));
#315=CARTESIAN_POINT('Ctrl Pts',(26.9836167686646,-14.2239586905057,53.1343464654574));
#316=CARTESIAN_POINT('Ctrl Pts',(27.5715552556864,-13.0692588497039,50.3726182446998));
#317=CARTESIAN_POINT('Ctrl Pts',(28.1084936654986,-11.9218470415129,48.7086436071724));
#318=CARTESIAN_POINT('Ctrl Pts',(29.0829298771443,-9.29468155634792,46.0814781220632));
#319=CARTESIAN_POINT('Ctrl Pts',(29.5899538759506,-7.62957268130726,44.9316185788414));
#320=CARTESIAN_POINT('Ctrl Pts',(30.1242640922699,-4.8641701211993,43.775440395362));
#321=CARTESIAN_POINT('Ctrl Pts',(30.2657454644937,-3.89828022855074,43.4812495734599));
#322=CARTESIAN_POINT('Ctrl Pts',(30.4536705981116,-1.9457349165554,43.0934639058732));
#323=CARTESIAN_POINT('Ctrl Pts',(30.5,-0.959042488981575,43.0000000013694));
#324=CARTESIAN_POINT('Ctrl Pts',(30.5,-6.93889390390723E-017,43.0000000013694));
#325=CARTESIAN_POINT('',(30.5,-7.470099E-015,73.000000001369));
#326=CARTESIAN_POINT('Ctrl Pts',(26.556543449779,-15.,58.0000000011923));
#327=CARTESIAN_POINT('Ctrl Pts',(26.556543449779,-15.,58.9614732569552));
#328=CARTESIAN_POINT('Ctrl Pts',(26.6102840910172,-14.9061012318083,59.9489564865616));
#329=CARTESIAN_POINT('Ctrl Pts',(26.8239945305765,-14.5180022921717,61.9010120465313));
#330=CARTESIAN_POINT('Ctrl Pts',(26.983616768664,-14.2239586905067,62.865653536961));
#331=CARTESIAN_POINT('Ctrl Pts',(27.5715552556804,-13.069258849716,65.6273817577511));
#332=CARTESIAN_POINT('Ctrl Pts',(28.1084936654851,-11.9218470415425,67.2913563953099));
#333=CARTESIAN_POINT('Ctrl Pts',(29.0829298771257,-9.2946815564047,69.9185218805034));
#334=CARTESIAN_POINT('Ctrl Pts',(29.5899538759357,-7.6295726813671,71.0683814237824));
#335=CARTESIAN_POINT('Ctrl Pts',(30.1242640922622,-4.86417012124796,72.2245596073267));
#336=CARTESIAN_POINT('Ctrl Pts',(30.2657454644886,-3.89828022859301,72.518750429247));
#337=CARTESIAN_POINT('Ctrl Pts',(30.4536705981103,-1.94573491657993,72.9065360968588));
#338=CARTESIAN_POINT('Ctrl Pts',(30.5,-0.959042488994744,73.0000000013693));
#339=CARTESIAN_POINT('Ctrl Pts',(30.5,-1.73472347597681E-015,73.0000000013693));
#340=CARTESIAN_POINT('',(26.556543449779,15.,58.000000001192));
#341=CARTESIAN_POINT('Ctrl Pts',(30.5,1.52655665885959E-015,73.0000000013693));
#342=CARTESIAN_POINT('Ctrl Pts',(30.5,0.959042488994745,73.0000000013693));
#343=CARTESIAN_POINT('Ctrl Pts',(30.4536705981103,1.94573491657993,72.9065360968588));
#344=CARTESIAN_POINT('Ctrl Pts',(30.2657454644886,3.89828022859301,72.518750429247));
#345=CARTESIAN_POINT('Ctrl Pts',(30.1242640922622,4.86417012124797,72.2245596073267));
#346=CARTESIAN_POINT('Ctrl Pts',(29.5899538759357,7.6295726813671,71.0683814237824));
#347=CARTESIAN_POINT('Ctrl Pts',(29.0829298771257,9.2946815564047,69.9185218805034));
#348=CARTESIAN_POINT('Ctrl Pts',(28.108493665485,11.9218470415425,67.2913563953099));
#349=CARTESIAN_POINT('Ctrl Pts',(27.5715552556804,13.069258849716,65.6273817577511));
#350=CARTESIAN_POINT('Ctrl Pts',(26.983616768664,14.2239586905067,62.865653536961));
#351=CARTESIAN_POINT('Ctrl Pts',(26.8239945305765,14.5180022921717,61.9010120465313));
#352=CARTESIAN_POINT('Ctrl Pts',(26.6102840910172,14.9061012318083,59.9489564865616));
#353=CARTESIAN_POINT('Ctrl Pts',(26.556543449779,15.,58.9614732569552));
#354=CARTESIAN_POINT('Ctrl Pts',(26.556543449779,15.,58.0000000011923));
#355=CARTESIAN_POINT('Ctrl Pts',(30.5,-3.81639164714898E-015,43.0000000013694));
#356=CARTESIAN_POINT('Ctrl Pts',(30.5,0.959042488981571,43.0000000013694));
#357=CARTESIAN_POINT('Ctrl Pts',(30.4536705981116,1.9457349165554,43.0934639058732));
#358=CARTESIAN_POINT('Ctrl Pts',(30.2657454644937,3.89828022855073,43.4812495734599));
#359=CARTESIAN_POINT('Ctrl Pts',(30.1242640922699,4.8641701211993,43.775440395362));
#360=CARTESIAN_POINT('Ctrl Pts',(29.5899538759506,7.62957268130726,44.9316185788414));
#361=CARTESIAN_POINT('Ctrl Pts',(29.0829298771443,9.29468155634791,46.0814781220632));
#362=CARTESIAN_POINT('Ctrl Pts',(28.1084936654986,11.9218470415129,48.7086436071724));
#363=CARTESIAN_POINT('Ctrl Pts',(27.5715552556864,13.0692588497039,50.3726182446998));
#364=CARTESIAN_POINT('Ctrl Pts',(26.9836167686646,14.2239586905057,53.1343464654574));
#365=CARTESIAN_POINT('Ctrl Pts',(26.8239945305762,14.5180022921722,54.0989879558787));
#366=CARTESIAN_POINT('Ctrl Pts',(26.6102840910166,14.9061012318093,56.0510435158344));
#367=CARTESIAN_POINT('Ctrl Pts',(26.556543449779,15.,57.0385267454351));
#368=CARTESIAN_POINT('Ctrl Pts',(26.556543449779,15.,58.0000000011923));
#369=CARTESIAN_POINT('Origin',(4.44089209850063E-015,0.,15.5));
#370=CARTESIAN_POINT('',(-25.,-3.061516E-015,31.));
#371=CARTESIAN_POINT('Origin',(0.,0.,31.));
#372=CARTESIAN_POINT('',(-25.,-3.061516E-015,0.));
#373=CARTESIAN_POINT('Origin',(0.,0.,0.));
#374=CARTESIAN_POINT('Origin',(0.,0.,58.));
#375=CARTESIAN_POINT('',(42.9999999993266,-1.83691E-015,73.0000000019306));
#376=CARTESIAN_POINT('Origin',(43.,0.,58.000000001931));
#377=CARTESIAN_POINT('Origin',(4.44089209850063E-015,0.,100.5));
#378=CARTESIAN_POINT('',(-25.,-3.061516E-015,116.));
#379=CARTESIAN_POINT('Origin',(0.,0.,116.));
#380=CARTESIAN_POINT('',(-25.,-3.061516E-015,85.));
#381=CARTESIAN_POINT('Origin',(0.,0.,85.));
#382=CARTESIAN_POINT('Origin',(35.,0.,58.0000000015712));
#383=CARTESIAN_POINT('',(42.999999999551,-1.224606E-015,68.0000000019304));
#384=CARTESIAN_POINT('Origin',(43.,0.,58.000000001931));
#385=CARTESIAN_POINT('',(26.999999999551,-1.224606E-015,68.000000001212));
#386=CARTESIAN_POINT('Origin',(27.,0.,58.000000001212));
#387=CARTESIAN_POINT('Origin',(0.,0.,0.));
#388=CARTESIAN_POINT('Origin',(0.,0.,31.));
#389=CARTESIAN_POINT('Origin',(0.,0.,116.));
#390=CARTESIAN_POINT('Origin',(43.,0.,58.000000001931));
#391=CARTESIAN_POINT('Origin',(0.,0.,85.));
#392=CARTESIAN_POINT('Origin',(27.,0.,58.000000001212));
#393=UNCERTAINTY_MEASURE_WITH_UNIT(LENGTH_MEASURE(0.01),#395,
'DISTANCE_ACCURACY_VALUE',
'Maximum model space distance between geometric entities at asserted c
onnectivities');
#394=(
GEOMETRIC_REPRESENTATION_CONTEXT(3)
GLOBAL_UNCERTAINTY_ASSIGNED_CONTEXT((#393))
GLOBAL_UNIT_ASSIGNED_CONTEXT((#395,#398,#396))
REPRESENTATION_CONTEXT('','3D')
);
#395=(
LENGTH_UNIT()
NAMED_UNIT(*)
SI_UNIT(.MILLI.,.METRE.)
);
#396=(
NAMED_UNIT(*)
SI_UNIT($,.STERADIAN.)
SOLID_ANGLE_UNIT()
);
#397=DIMENSIONAL_EXPONENTS(0.,0.,0.,0.,0.,0.,0.);
#398=(
CONVERSION_BASED_UNIT('degree',#400)
NAMED_UNIT(#397)
PLANE_ANGLE_UNIT()
);
#399=(
NAMED_UNIT(*)
PLANE_ANGLE_UNIT()
SI_UNIT($,.RADIAN.)
);
#400=PLANE_ANGLE_MEASURE_WITH_UNIT(PLANE_ANGLE_MEASURE(0.01745329252),#399);
#401=SHAPE_DEFINITION_REPRESENTATION(#402,#403);
#402=PRODUCT_DEFINITION_SHAPE('',$,#405);
#403=SHAPE_REPRESENTATION('',(#182),#394);
#404=PRODUCT_DEFINITION_CONTEXT('3D Mechanical Parts',#408,'design');
#405=PRODUCT_DEFINITION('TRIV050020','TRIV050020',#406,#404);
#406=PRODUCT_DEFINITION_FORMATION('',$,#410);
#407=APPLICATION_PROTOCOL_DEFINITION('international standard',
'automotive_design',2009,#408);
#408=APPLICATION_CONTEXT(
'Core Data for Automotive Mechanical Design Process');
#409=PRODUCT_CONTEXT('3D Mechanical Parts',#408,'mechanical');
#410=PRODUCT('TRIV050020','TRIV050020',$,(#409));
#411=PRESENTATION_STYLE_ASSIGNMENT((#412));
#412=SURFACE_STYLE_USAGE(.BOTH.,#413);
#413=SURFACE_SIDE_STYLE($,(#414));
#414=SURFACE_STYLE_FILL_AREA(#415);
#415=FILL_AREA_STYLE($,(#416));
#416=FILL_AREA_STYLE_COLOUR($,#417);
#417=COLOUR_RGB('',0.509803921568627,0.509803921568627,0.588235294117647);
ENDSEC;
END-ISO-10303-21;
