ISO-10303-21;
HEADER;
/* Generated by software containing ST-Developer
 * from STEP Tools, Inc. (www.steptools.com) 
 */

FILE_DESCRIPTION(
/* description */ (''),
/* implementation_level */ '2;1');

FILE_NAME(
/* name */ 'C:\\Users\\mdebiase\\Desktop\\baricentro\\RIV063050025.ipt.
stp',
/* time_stamp */ '2014-05-27T15:24:55+02:00',
/* author */ ('bfaro'),
/* organization */ (''),
/* preprocessor_version */ 'ST-DEVELOPER v15.2',
/* originating_system */ 'Autodesk Inventor 2014',
/* authorisation */ '');

FILE_SCHEMA (('AUTOMOTIVE_DESIGN { 1 0 10303 214 3 1 1 }'));
ENDSEC;

DATA;
#10=SHAPE_REPRESENTATION_RELATIONSHIP('SRR','None',#249,#11);
#11=ADVANCED_BREP_SHAPE_REPRESENTATION($,(#135),#240);
#12=STYLED_ITEM($,(#257),#135);
#13=PLANE($,#156);
#14=PLANE($,#157);
#15=PLANE($,#158);
#16=CONICAL_SURFACE($,#152,25.9141274254645,53.9999999999998);
#17=CYLINDRICAL_SURFACE($,#140,12.);
#18=CYLINDRICAL_SURFACE($,#142,25.);
#19=CYLINDRICAL_SURFACE($,#144,12.5);
#20=CYLINDRICAL_SURFACE($,#147,16.);
#21=CYLINDRICAL_SURFACE($,#154,31.5);
#22=FACE_BOUND($,#45,.T.);
#23=FACE_BOUND($,#47,.T.);
#24=FACE_BOUND($,#49,.T.);
#25=FACE_BOUND($,#51,.T.);
#26=FACE_BOUND($,#53,.T.);
#27=FACE_BOUND($,#55,.T.);
#28=FACE_BOUND($,#57,.T.);
#29=FACE_BOUND($,#59,.T.);
#30=FACE_BOUND($,#60,.T.);
#31=FACE_BOUND($,#61,.T.);
#32=FACE_BOUND($,#63,.T.);
#33=FACE_BOUND($,#65,.T.);
#34=FACE_OUTER_BOUND($,#44,.T.);
#35=FACE_OUTER_BOUND($,#46,.T.);
#36=FACE_OUTER_BOUND($,#48,.T.);
#37=FACE_OUTER_BOUND($,#50,.T.);
#38=FACE_OUTER_BOUND($,#52,.T.);
#39=FACE_OUTER_BOUND($,#54,.T.);
#40=FACE_OUTER_BOUND($,#56,.T.);
#41=FACE_OUTER_BOUND($,#58,.T.);
#42=FACE_OUTER_BOUND($,#62,.T.);
#43=FACE_OUTER_BOUND($,#64,.T.);
#44=EDGE_LOOP($,(#99));
#45=EDGE_LOOP($,(#100));
#46=EDGE_LOOP($,(#101));
#47=EDGE_LOOP($,(#102));
#48=EDGE_LOOP($,(#103));
#49=EDGE_LOOP($,(#104));
#50=EDGE_LOOP($,(#105));
#51=EDGE_LOOP($,(#106));
#52=EDGE_LOOP($,(#107));
#53=EDGE_LOOP($,(#108));
#54=EDGE_LOOP($,(#109));
#55=EDGE_LOOP($,(#110));
#56=EDGE_LOOP($,(#111));
#57=EDGE_LOOP($,(#112));
#58=EDGE_LOOP($,(#113));
#59=EDGE_LOOP($,(#114));
#60=EDGE_LOOP($,(#115));
#61=EDGE_LOOP($,(#116));
#62=EDGE_LOOP($,(#117));
#63=EDGE_LOOP($,(#118));
#64=EDGE_LOOP($,(#119));
#65=EDGE_LOOP($,(#120));
#66=CIRCLE($,#138,12.);
#67=CIRCLE($,#139,25.);
#68=CIRCLE($,#141,12.);
#69=CIRCLE($,#143,25.);
#70=CIRCLE($,#145,12.5);
#71=CIRCLE($,#146,12.5);
#72=CIRCLE($,#148,16.);
#73=CIRCLE($,#149,16.);
#74=CIRCLE($,#151,20.3282548509291);
#75=CIRCLE($,#153,31.5);
#76=CIRCLE($,#155,31.5);
#77=VERTEX_POINT($,#207);
#78=VERTEX_POINT($,#209);
#79=VERTEX_POINT($,#212);
#80=VERTEX_POINT($,#215);
#81=VERTEX_POINT($,#218);
#82=VERTEX_POINT($,#220);
#83=VERTEX_POINT($,#223);
#84=VERTEX_POINT($,#225);
#85=VERTEX_POINT($,#228);
#86=VERTEX_POINT($,#231);
#87=VERTEX_POINT($,#234);
#88=EDGE_CURVE($,#77,#77,#66,.T.);
#89=EDGE_CURVE($,#78,#78,#67,.T.);
#90=EDGE_CURVE($,#79,#79,#68,.T.);
#91=EDGE_CURVE($,#80,#80,#69,.T.);
#92=EDGE_CURVE($,#81,#81,#70,.T.);
#93=EDGE_CURVE($,#82,#82,#71,.T.);
#94=EDGE_CURVE($,#83,#83,#72,.T.);
#95=EDGE_CURVE($,#84,#84,#73,.T.);
#96=EDGE_CURVE($,#85,#85,#74,.T.);
#97=EDGE_CURVE($,#86,#86,#75,.T.);
#98=EDGE_CURVE($,#87,#87,#76,.T.);
#99=ORIENTED_EDGE($,*,*,#88,.T.);
#100=ORIENTED_EDGE($,*,*,#89,.T.);
#101=ORIENTED_EDGE($,*,*,#90,.F.);
#102=ORIENTED_EDGE($,*,*,#88,.F.);
#103=ORIENTED_EDGE($,*,*,#89,.F.);
#104=ORIENTED_EDGE($,*,*,#91,.F.);
#105=ORIENTED_EDGE($,*,*,#92,.F.);
#106=ORIENTED_EDGE($,*,*,#93,.F.);
#107=ORIENTED_EDGE($,*,*,#94,.T.);
#108=ORIENTED_EDGE($,*,*,#95,.F.);
#109=ORIENTED_EDGE($,*,*,#96,.F.);
#110=ORIENTED_EDGE($,*,*,#95,.T.);
#111=ORIENTED_EDGE($,*,*,#96,.T.);
#112=ORIENTED_EDGE($,*,*,#97,.F.);
#113=ORIENTED_EDGE($,*,*,#97,.T.);
#114=ORIENTED_EDGE($,*,*,#98,.F.);
#115=ORIENTED_EDGE($,*,*,#90,.T.);
#116=ORIENTED_EDGE($,*,*,#92,.T.);
#117=ORIENTED_EDGE($,*,*,#94,.F.);
#118=ORIENTED_EDGE($,*,*,#93,.T.);
#119=ORIENTED_EDGE($,*,*,#98,.T.);
#120=ORIENTED_EDGE($,*,*,#91,.T.);
#121=TOROIDAL_SURFACE($,#137,34.,22.);
#122=TOROIDAL_SURFACE($,#150,26.5,10.5000000000001);
#123=ADVANCED_FACE($,(#34,#22),#121,.T.);
#124=ADVANCED_FACE($,(#35,#23),#17,.F.);
#125=ADVANCED_FACE($,(#36,#24),#18,.F.);
#126=ADVANCED_FACE($,(#37,#25),#19,.F.);
#127=ADVANCED_FACE($,(#38,#26),#20,.T.);
#128=ADVANCED_FACE($,(#39,#27),#122,.F.);
#129=ADVANCED_FACE($,(#40,#28),#16,.T.);
#130=ADVANCED_FACE($,(#41,#29),#21,.T.);
#131=ADVANCED_FACE($,(#30,#31),#13,.T.);
#132=ADVANCED_FACE($,(#42,#32),#14,.T.);
#133=ADVANCED_FACE($,(#43,#33),#15,.T.);
#134=CLOSED_SHELL($,(#123,#124,#125,#126,#127,#128,#129,#130,#131,#132,
#133));
#135=MANIFOLD_SOLID_BREP('Solido1',#134);
#136=AXIS2_PLACEMENT_3D('placement',#205,#159,#160);
#137=AXIS2_PLACEMENT_3D($,#206,#161,#162);
#138=AXIS2_PLACEMENT_3D($,#208,#163,#164);
#139=AXIS2_PLACEMENT_3D($,#210,#165,#166);
#140=AXIS2_PLACEMENT_3D($,#211,#167,#168);
#141=AXIS2_PLACEMENT_3D($,#213,#169,#170);
#142=AXIS2_PLACEMENT_3D($,#214,#171,#172);
#143=AXIS2_PLACEMENT_3D($,#216,#173,#174);
#144=AXIS2_PLACEMENT_3D($,#217,#175,#176);
#145=AXIS2_PLACEMENT_3D($,#219,#177,#178);
#146=AXIS2_PLACEMENT_3D($,#221,#179,#180);
#147=AXIS2_PLACEMENT_3D($,#222,#181,#182);
#148=AXIS2_PLACEMENT_3D($,#224,#183,#184);
#149=AXIS2_PLACEMENT_3D($,#226,#185,#186);
#150=AXIS2_PLACEMENT_3D($,#227,#187,#188);
#151=AXIS2_PLACEMENT_3D($,#229,#189,#190);
#152=AXIS2_PLACEMENT_3D($,#230,#191,#192);
#153=AXIS2_PLACEMENT_3D($,#232,#193,#194);
#154=AXIS2_PLACEMENT_3D($,#233,#195,#196);
#155=AXIS2_PLACEMENT_3D($,#235,#197,#198);
#156=AXIS2_PLACEMENT_3D($,#236,#199,#200);
#157=AXIS2_PLACEMENT_3D($,#237,#201,#202);
#158=AXIS2_PLACEMENT_3D($,#238,#203,#204);
#159=DIRECTION('axis',(0.,0.,1.));
#160=DIRECTION('refdir',(1.,0.,0.));
#161=DIRECTION('center_axis',(-1.,0.,0.));
#162=DIRECTION('ref_axis',(0.,0.,-1.));
#163=DIRECTION('center_axis',(1.,0.,0.));
#164=DIRECTION('ref_axis',(0.,0.,-1.));
#165=DIRECTION('center_axis',(-1.,0.,0.));
#166=DIRECTION('ref_axis',(0.,-1.,0.));
#167=DIRECTION('center_axis',(-1.,0.,0.));
#168=DIRECTION('ref_axis',(0.,0.,1.));
#169=DIRECTION('center_axis',(-1.,0.,0.));
#170=DIRECTION('ref_axis',(0.,0.,1.));
#171=DIRECTION('center_axis',(1.,0.,0.));
#172=DIRECTION('ref_axis',(0.,-1.,0.));
#173=DIRECTION('center_axis',(1.,0.,0.));
#174=DIRECTION('ref_axis',(0.,-1.,0.));
#175=DIRECTION('center_axis',(-1.,0.,0.));
#176=DIRECTION('ref_axis',(0.,-1.,0.));
#177=DIRECTION('center_axis',(1.,0.,0.));
#178=DIRECTION('ref_axis',(0.,-1.,0.));
#179=DIRECTION('center_axis',(-1.,0.,0.));
#180=DIRECTION('ref_axis',(0.,-1.,0.));
#181=DIRECTION('center_axis',(-1.,0.,0.));
#182=DIRECTION('ref_axis',(0.,1.,0.));
#183=DIRECTION('center_axis',(-1.,0.,0.));
#184=DIRECTION('ref_axis',(0.,1.,0.));
#185=DIRECTION('center_axis',(-1.,0.,0.));
#186=DIRECTION('ref_axis',(0.,1.,0.));
#187=DIRECTION('center_axis',(-1.,-1.04675641068389E-014,2.153254739294E-016));
#188=DIRECTION('ref_axis',(2.88057865848688E-016,0.,1.));
#189=DIRECTION('center_axis',(-1.,0.,0.));
#190=DIRECTION('ref_axis',(0.,1.,0.));
#191=DIRECTION('center_axis',(-1.,0.,0.));
#192=DIRECTION('ref_axis',(0.,1.,0.));
#193=DIRECTION('center_axis',(-1.,0.,0.));
#194=DIRECTION('ref_axis',(0.,1.,0.));
#195=DIRECTION('center_axis',(-1.,0.,0.));
#196=DIRECTION('ref_axis',(0.,1.,0.));
#197=DIRECTION('center_axis',(-1.,0.,0.));
#198=DIRECTION('ref_axis',(0.,1.,0.));
#199=DIRECTION('center_axis',(1.,0.,0.));
#200=DIRECTION('ref_axis',(0.,0.,-1.));
#201=DIRECTION('center_axis',(1.,0.,0.));
#202=DIRECTION('ref_axis',(0.,0.,-1.));
#203=DIRECTION('center_axis',(-1.,0.,0.));
#204=DIRECTION('ref_axis',(0.,0.,1.));
#205=CARTESIAN_POINT('',(0.,0.,0.));
#206=CARTESIAN_POINT('Origin',(21.6431437476878,-1.52463996982988E-007,
-9.58504E-031));
#207=CARTESIAN_POINT('',(21.6431437476878,-1.52463996982988E-007,12.));
#208=CARTESIAN_POINT('Origin',(21.6431437476878,-1.52463996982988E-007,
-9.58504E-031));
#209=CARTESIAN_POINT('',(1.56828384780301,-1.52463996982988E-007,25.));
#210=CARTESIAN_POINT('Origin',(1.56828384780301,-1.52463996982988E-007,
-9.58504E-031));
#211=CARTESIAN_POINT('Origin',(24.568283847803,-1.52463996982988E-007,-1.374397E-031));
#212=CARTESIAN_POINT('',(24.568283847803,-1.52463996982988E-007,-12.));
#213=CARTESIAN_POINT('Origin',(24.568283847803,-1.52463996982988E-007,-1.374397E-031));
#214=CARTESIAN_POINT('Origin',(-13.931716152196,-1.52463996982988E-007,
-9.58504E-031));
#215=CARTESIAN_POINT('',(-29.431716152196,24.999999847536,3.061516E-015));
#216=CARTESIAN_POINT('Origin',(-29.431716152196,-1.52463996982988E-007,
-9.58504E-031));
#217=CARTESIAN_POINT('Origin',(34.0682838478035,-1.52463996982988E-007,
-1.374397E-031));
#218=CARTESIAN_POINT('',(24.568283847803,12.499999847536,-1.530758E-015));
#219=CARTESIAN_POINT('Origin',(24.568283847803,-1.52463996982988E-007,-1.374397E-031));
#220=CARTESIAN_POINT('',(43.568283847804,12.499999847536,-1.530758E-015));
#221=CARTESIAN_POINT('Origin',(43.568283847804,-1.52463996982988E-007,-1.374397E-031));
#222=CARTESIAN_POINT('Origin',(34.373997049691,-1.52463996982988E-007,0.));
#223=CARTESIAN_POINT('',(43.568283847804,-16.000000152464,1.95937E-015));
#224=CARTESIAN_POINT('Origin',(43.568283847804,-1.52463996982988E-007,0.));
#225=CARTESIAN_POINT('',(25.179710251578,-1.52463996982988E-007,-16.));
#226=CARTESIAN_POINT('Origin',(25.179710251578,-1.52463996982988E-007,0.));
#227=CARTESIAN_POINT('Origin',(25.1797102515782,-1.52464156855103E-007,
-1.00683350545694E-013));
#228=CARTESIAN_POINT('',(16.685031810641,-1.52463996982988E-007,-20.3282548509291));
#229=CARTESIAN_POINT('Origin',(16.685031810641,-1.52463996982988E-007,0.));
#230=CARTESIAN_POINT('Origin',(12.626657829222,-1.52463996982988E-007,0.));
#231=CARTESIAN_POINT('',(8.568283847804,-31.500000152464,3.85751E-015));
#232=CARTESIAN_POINT('Origin',(8.568283847804,-1.52463996982988E-007,0.));
#233=CARTESIAN_POINT('Origin',(-10.431716152197,-1.52463996982988E-007,
0.));
#234=CARTESIAN_POINT('',(-29.431716152196,-31.500000152464,3.85751E-015));
#235=CARTESIAN_POINT('Origin',(-29.431716152196,-1.52463996982988E-007,
0.));
#236=CARTESIAN_POINT('Origin',(24.568283847803,-12.500000152464,-1.374397E-031));
#237=CARTESIAN_POINT('Origin',(43.568283847804,7.99999984753601,0.));
#238=CARTESIAN_POINT('Origin',(-29.431716152196,15.749999847536,0.));
#239=UNCERTAINTY_MEASURE_WITH_UNIT(LENGTH_MEASURE(0.01),#241,
'DISTANCE_ACCURACY_VALUE',
'Maximum model space distance between geometric entities at asserted c
onnectivities');
#240=(
GEOMETRIC_REPRESENTATION_CONTEXT(3)
GLOBAL_UNCERTAINTY_ASSIGNED_CONTEXT((#239))
GLOBAL_UNIT_ASSIGNED_CONTEXT((#241,#244,#242))
REPRESENTATION_CONTEXT('','3D')
);
#241=(
LENGTH_UNIT()
NAMED_UNIT(*)
SI_UNIT(.MILLI.,.METRE.)
);
#242=(
NAMED_UNIT(*)
SI_UNIT($,.STERADIAN.)
SOLID_ANGLE_UNIT()
);
#243=DIMENSIONAL_EXPONENTS(0.,0.,0.,0.,0.,0.,0.);
#244=(
CONVERSION_BASED_UNIT('degree',#246)
NAMED_UNIT(#243)
PLANE_ANGLE_UNIT()
);
#245=(
NAMED_UNIT(*)
PLANE_ANGLE_UNIT()
SI_UNIT($,.RADIAN.)
);
#246=PLANE_ANGLE_MEASURE_WITH_UNIT(PLANE_ANGLE_MEASURE(0.01745329252),#245);
#247=SHAPE_DEFINITION_REPRESENTATION(#248,#249);
#248=PRODUCT_DEFINITION_SHAPE('',$,#251);
#249=SHAPE_REPRESENTATION('',(#136),#240);
#250=PRODUCT_DEFINITION_CONTEXT('3D Mechanical Parts',#254,'design');
#251=PRODUCT_DEFINITION('RIV063050025','RIV063050025',#252,#250);
#252=PRODUCT_DEFINITION_FORMATION('',$,#256);
#253=APPLICATION_PROTOCOL_DEFINITION('international standard',
'automotive_design',2009,#254);
#254=APPLICATION_CONTEXT(
'Core Data for Automotive Mechanical Design Process');
#255=PRODUCT_CONTEXT('3D Mechanical Parts',#254,'mechanical');
#256=PRODUCT('RIV063050025','RIV063050025',$,(#255));
#257=PRESENTATION_STYLE_ASSIGNMENT((#258));
#258=SURFACE_STYLE_USAGE(.BOTH.,#259);
#259=SURFACE_SIDE_STYLE($,(#260));
#260=SURFACE_STYLE_FILL_AREA(#261);
#261=FILL_AREA_STYLE($,(#262));
#262=FILL_AREA_STYLE_COLOUR($,#263);
#263=COLOUR_RGB('',0.509803921568627,0.509803921568627,0.588235294117647);
ENDSEC;
END-ISO-10303-21;
