ISO-10303-21;
HEADER;
/* Generated by software containing ST-Developer
 * from STEP Tools, Inc. (www.steptools.com) 
 */

FILE_DESCRIPTION(
/* description */ (''),
/* implementation_level */ '2;1');

FILE_NAME(
/* name */ 
'Q:\\Ric010\\FF7\\FIPlastiCAD\\FIP\\Lavoro\\PVC Fittings\\PVC Fittings
 STEP\\TIV\\TIV012.ipt.stp',
/* time_stamp */ '2013-10-01T14:55:37+02:00',
/* author */ ('bfaro'),
/* organization */ (''),
/* preprocessor_version */ 'ST-DEVELOPER v15.2',
/* originating_system */ 'Autodesk Inventor 2014',
/* authorisation */ '');

FILE_SCHEMA (('AUTOMOTIVE_DESIGN { 1 0 10303 214 3 1 1 }'));
ENDSEC;

DATA;
#10=SHAPE_REPRESENTATION_RELATIONSHIP('SRR','None',#323,#11);
#11=ADVANCED_BREP_SHAPE_REPRESENTATION($,(#176),#314);
#12=STYLED_ITEM($,(#331),#176);
#13=ELLIPSE($,#194,7.77817459305202,5.5);
#14=ELLIPSE($,#195,7.77817459305202,5.5);
#15=ELLIPSE($,#198,11.667261889578,8.25);
#16=ELLIPSE($,#199,11.667261889578,8.25);
#17=PLANE($,#181);
#18=PLANE($,#186);
#19=PLANE($,#191);
#20=PLANE($,#201);
#21=PLANE($,#205);
#22=PLANE($,#206);
#23=FACE_BOUND($,#52,.T.);
#24=FACE_BOUND($,#53,.T.);
#25=FACE_BOUND($,#54,.T.);
#26=FACE_BOUND($,#56,.T.);
#27=FACE_BOUND($,#57,.T.);
#28=FACE_BOUND($,#58,.T.);
#29=FACE_BOUND($,#60,.T.);
#30=FACE_BOUND($,#61,.T.);
#31=FACE_BOUND($,#62,.T.);
#32=FACE_BOUND($,#64,.T.);
#33=FACE_BOUND($,#66,.T.);
#34=FACE_BOUND($,#67,.T.);
#35=FACE_BOUND($,#69,.T.);
#36=FACE_BOUND($,#70,.T.);
#37=FACE_BOUND($,#71,.T.);
#38=FACE_BOUND($,#72,.T.);
#39=FACE_BOUND($,#73,.T.);
#40=FACE_BOUND($,#74,.T.);
#41=FACE_BOUND($,#75,.T.);
#42=FACE_BOUND($,#76,.T.);
#43=FACE_BOUND($,#77,.T.);
#44=FACE_BOUND($,#78,.T.);
#45=FACE_OUTER_BOUND($,#51,.T.);
#46=FACE_OUTER_BOUND($,#55,.T.);
#47=FACE_OUTER_BOUND($,#59,.T.);
#48=FACE_OUTER_BOUND($,#63,.T.);
#49=FACE_OUTER_BOUND($,#65,.T.);
#50=FACE_OUTER_BOUND($,#68,.T.);
#51=EDGE_LOOP($,(#123));
#52=EDGE_LOOP($,(#124));
#53=EDGE_LOOP($,(#125));
#54=EDGE_LOOP($,(#126));
#55=EDGE_LOOP($,(#127));
#56=EDGE_LOOP($,(#128));
#57=EDGE_LOOP($,(#129));
#58=EDGE_LOOP($,(#130));
#59=EDGE_LOOP($,(#131));
#60=EDGE_LOOP($,(#132));
#61=EDGE_LOOP($,(#133));
#62=EDGE_LOOP($,(#134));
#63=EDGE_LOOP($,(#135));
#64=EDGE_LOOP($,(#136,#137));
#65=EDGE_LOOP($,(#138));
#66=EDGE_LOOP($,(#139));
#67=EDGE_LOOP($,(#140,#141));
#68=EDGE_LOOP($,(#142,#143));
#69=EDGE_LOOP($,(#144));
#70=EDGE_LOOP($,(#145));
#71=EDGE_LOOP($,(#146));
#72=EDGE_LOOP($,(#147,#148));
#73=EDGE_LOOP($,(#149));
#74=EDGE_LOOP($,(#150));
#75=EDGE_LOOP($,(#151));
#76=EDGE_LOOP($,(#152));
#77=EDGE_LOOP($,(#153));
#78=EDGE_LOOP($,(#154));
#79=CIRCLE($,#179,6.);
#80=CIRCLE($,#180,6.);
#81=CIRCLE($,#182,5.5);
#82=CIRCLE($,#184,6.);
#83=CIRCLE($,#185,6.);
#84=CIRCLE($,#187,5.5);
#85=CIRCLE($,#189,6.);
#86=CIRCLE($,#190,6.);
#87=CIRCLE($,#192,5.5);
#88=CIRCLE($,#200,8.25);
#89=CIRCLE($,#203,8.25);
#90=CIRCLE($,#204,8.25);
#91=VERTEX_POINT($,#269);
#92=VERTEX_POINT($,#271);
#93=VERTEX_POINT($,#274);
#94=VERTEX_POINT($,#277);
#95=VERTEX_POINT($,#279);
#96=VERTEX_POINT($,#282);
#97=VERTEX_POINT($,#285);
#98=VERTEX_POINT($,#287);
#99=VERTEX_POINT($,#290);
#100=VERTEX_POINT($,#293);
#101=VERTEX_POINT($,#294);
#102=VERTEX_POINT($,#299);
#103=VERTEX_POINT($,#300);
#104=VERTEX_POINT($,#303);
#105=VERTEX_POINT($,#307);
#106=VERTEX_POINT($,#309);
#107=EDGE_CURVE($,#91,#91,#79,.T.);
#108=EDGE_CURVE($,#92,#92,#80,.T.);
#109=EDGE_CURVE($,#93,#93,#81,.T.);
#110=EDGE_CURVE($,#94,#94,#82,.T.);
#111=EDGE_CURVE($,#95,#95,#83,.T.);
#112=EDGE_CURVE($,#96,#96,#84,.T.);
#113=EDGE_CURVE($,#97,#97,#85,.T.);
#114=EDGE_CURVE($,#98,#98,#86,.T.);
#115=EDGE_CURVE($,#99,#99,#87,.T.);
#116=EDGE_CURVE($,#100,#101,#13,.T.);
#117=EDGE_CURVE($,#101,#100,#14,.T.);
#118=EDGE_CURVE($,#102,#103,#15,.T.);
#119=EDGE_CURVE($,#103,#102,#16,.T.);
#120=EDGE_CURVE($,#104,#104,#88,.T.);
#121=EDGE_CURVE($,#105,#105,#89,.T.);
#122=EDGE_CURVE($,#106,#106,#90,.T.);
#123=ORIENTED_EDGE($,*,*,#107,.T.);
#124=ORIENTED_EDGE($,*,*,#108,.F.);
#125=ORIENTED_EDGE($,*,*,#109,.F.);
#126=ORIENTED_EDGE($,*,*,#107,.F.);
#127=ORIENTED_EDGE($,*,*,#110,.T.);
#128=ORIENTED_EDGE($,*,*,#111,.F.);
#129=ORIENTED_EDGE($,*,*,#112,.F.);
#130=ORIENTED_EDGE($,*,*,#110,.F.);
#131=ORIENTED_EDGE($,*,*,#113,.T.);
#132=ORIENTED_EDGE($,*,*,#114,.F.);
#133=ORIENTED_EDGE($,*,*,#115,.F.);
#134=ORIENTED_EDGE($,*,*,#113,.F.);
#135=ORIENTED_EDGE($,*,*,#112,.T.);
#136=ORIENTED_EDGE($,*,*,#116,.F.);
#137=ORIENTED_EDGE($,*,*,#117,.F.);
#138=ORIENTED_EDGE($,*,*,#109,.T.);
#139=ORIENTED_EDGE($,*,*,#115,.T.);
#140=ORIENTED_EDGE($,*,*,#116,.T.);
#141=ORIENTED_EDGE($,*,*,#117,.T.);
#142=ORIENTED_EDGE($,*,*,#118,.F.);
#143=ORIENTED_EDGE($,*,*,#119,.F.);
#144=ORIENTED_EDGE($,*,*,#120,.F.);
#145=ORIENTED_EDGE($,*,*,#111,.T.);
#146=ORIENTED_EDGE($,*,*,#120,.T.);
#147=ORIENTED_EDGE($,*,*,#119,.T.);
#148=ORIENTED_EDGE($,*,*,#118,.T.);
#149=ORIENTED_EDGE($,*,*,#121,.F.);
#150=ORIENTED_EDGE($,*,*,#122,.F.);
#151=ORIENTED_EDGE($,*,*,#114,.T.);
#152=ORIENTED_EDGE($,*,*,#121,.T.);
#153=ORIENTED_EDGE($,*,*,#108,.T.);
#154=ORIENTED_EDGE($,*,*,#122,.T.);
#155=CYLINDRICAL_SURFACE($,#178,6.);
#156=CYLINDRICAL_SURFACE($,#183,6.);
#157=CYLINDRICAL_SURFACE($,#188,6.);
#158=CYLINDRICAL_SURFACE($,#193,5.5);
#159=CYLINDRICAL_SURFACE($,#196,5.5);
#160=CYLINDRICAL_SURFACE($,#197,8.25);
#161=CYLINDRICAL_SURFACE($,#202,8.25);
#162=ADVANCED_FACE($,(#45,#23),#155,.F.);
#163=ADVANCED_FACE($,(#24,#25),#17,.F.);
#164=ADVANCED_FACE($,(#46,#26),#156,.F.);
#165=ADVANCED_FACE($,(#27,#28),#18,.T.);
#166=ADVANCED_FACE($,(#47,#29),#157,.F.);
#167=ADVANCED_FACE($,(#30,#31),#19,.T.);
#168=ADVANCED_FACE($,(#48,#32),#158,.F.);
#169=ADVANCED_FACE($,(#49,#33,#34),#159,.F.);
#170=ADVANCED_FACE($,(#50,#35),#160,.T.);
#171=ADVANCED_FACE($,(#36,#37),#20,.T.);
#172=ADVANCED_FACE($,(#38,#39,#40),#161,.T.);
#173=ADVANCED_FACE($,(#41,#42),#21,.T.);
#174=ADVANCED_FACE($,(#43,#44),#22,.F.);
#175=CLOSED_SHELL($,(#162,#163,#164,#165,#166,#167,#168,#169,#170,#171,
#172,#173,#174));
#176=MANIFOLD_SOLID_BREP('Solido1',#175);
#177=AXIS2_PLACEMENT_3D('placement',#267,#207,#208);
#178=AXIS2_PLACEMENT_3D($,#268,#209,#210);
#179=AXIS2_PLACEMENT_3D($,#270,#211,#212);
#180=AXIS2_PLACEMENT_3D($,#272,#213,#214);
#181=AXIS2_PLACEMENT_3D($,#273,#215,#216);
#182=AXIS2_PLACEMENT_3D($,#275,#217,#218);
#183=AXIS2_PLACEMENT_3D($,#276,#219,#220);
#184=AXIS2_PLACEMENT_3D($,#278,#221,#222);
#185=AXIS2_PLACEMENT_3D($,#280,#223,#224);
#186=AXIS2_PLACEMENT_3D($,#281,#225,#226);
#187=AXIS2_PLACEMENT_3D($,#283,#227,#228);
#188=AXIS2_PLACEMENT_3D($,#284,#229,#230);
#189=AXIS2_PLACEMENT_3D($,#286,#231,#232);
#190=AXIS2_PLACEMENT_3D($,#288,#233,#234);
#191=AXIS2_PLACEMENT_3D($,#289,#235,#236);
#192=AXIS2_PLACEMENT_3D($,#291,#237,#238);
#193=AXIS2_PLACEMENT_3D($,#292,#239,#240);
#194=AXIS2_PLACEMENT_3D($,#295,#241,#242);
#195=AXIS2_PLACEMENT_3D($,#296,#243,#244);
#196=AXIS2_PLACEMENT_3D($,#297,#245,#246);
#197=AXIS2_PLACEMENT_3D($,#298,#247,#248);
#198=AXIS2_PLACEMENT_3D($,#301,#249,#250);
#199=AXIS2_PLACEMENT_3D($,#302,#251,#252);
#200=AXIS2_PLACEMENT_3D($,#304,#253,#254);
#201=AXIS2_PLACEMENT_3D($,#305,#255,#256);
#202=AXIS2_PLACEMENT_3D($,#306,#257,#258);
#203=AXIS2_PLACEMENT_3D($,#308,#259,#260);
#204=AXIS2_PLACEMENT_3D($,#310,#261,#262);
#205=AXIS2_PLACEMENT_3D($,#311,#263,#264);
#206=AXIS2_PLACEMENT_3D($,#312,#265,#266);
#207=DIRECTION('axis',(0.,0.,1.));
#208=DIRECTION('refdir',(1.,0.,0.));
#209=DIRECTION('center_axis',(1.,0.,0.));
#210=DIRECTION('ref_axis',(0.,0.,-1.));
#211=DIRECTION('center_axis',(1.,0.,0.));
#212=DIRECTION('ref_axis',(0.,0.,-1.));
#213=DIRECTION('center_axis',(1.,0.,0.));
#214=DIRECTION('ref_axis',(0.,0.,-1.));
#215=DIRECTION('center_axis',(1.,0.,0.));
#216=DIRECTION('ref_axis',(0.,0.,-1.));
#217=DIRECTION('center_axis',(-1.,0.,0.));
#218=DIRECTION('ref_axis',(0.,0.,1.));
#219=DIRECTION('center_axis',(0.,-1.,0.));
#220=DIRECTION('ref_axis',(-1.,0.,0.));
#221=DIRECTION('center_axis',(0.,-1.,0.));
#222=DIRECTION('ref_axis',(-1.,0.,0.));
#223=DIRECTION('center_axis',(0.,-1.,0.));
#224=DIRECTION('ref_axis',(-1.,0.,0.));
#225=DIRECTION('center_axis',(0.,1.,0.));
#226=DIRECTION('ref_axis',(0.,0.,1.));
#227=DIRECTION('center_axis',(0.,1.,0.));
#228=DIRECTION('ref_axis',(-1.,0.,0.));
#229=DIRECTION('center_axis',(-1.,0.,0.));
#230=DIRECTION('ref_axis',(0.,0.,1.));
#231=DIRECTION('center_axis',(-1.,0.,0.));
#232=DIRECTION('ref_axis',(0.,0.,1.));
#233=DIRECTION('center_axis',(-1.,0.,0.));
#234=DIRECTION('ref_axis',(0.,0.,1.));
#235=DIRECTION('center_axis',(1.,0.,0.));
#236=DIRECTION('ref_axis',(0.,0.,-1.));
#237=DIRECTION('center_axis',(1.,0.,0.));
#238=DIRECTION('ref_axis',(0.,0.,1.));
#239=DIRECTION('center_axis',(0.,-1.,0.));
#240=DIRECTION('ref_axis',(-1.,0.,0.));
#241=DIRECTION('center_axis',(-0.707106781186548,0.707106781186547,0.));
#242=DIRECTION('ref_axis',(-0.707106781186547,-0.707106781186548,0.));
#243=DIRECTION('center_axis',(0.707106781186548,0.707106781186547,0.));
#244=DIRECTION('ref_axis',(-0.707106781186547,0.707106781186548,0.));
#245=DIRECTION('center_axis',(-1.,0.,0.));
#246=DIRECTION('ref_axis',(0.,0.,1.));
#247=DIRECTION('center_axis',(0.,1.,0.));
#248=DIRECTION('ref_axis',(1.,0.,0.));
#249=DIRECTION('center_axis',(-0.707106781186548,-0.707106781186548,0.));
#250=DIRECTION('ref_axis',(0.707106781186548,-0.707106781186548,0.));
#251=DIRECTION('center_axis',(0.707106781186548,-0.707106781186548,0.));
#252=DIRECTION('ref_axis',(0.707106781186548,0.707106781186548,0.));
#253=DIRECTION('center_axis',(0.,1.,0.));
#254=DIRECTION('ref_axis',(1.,0.,0.));
#255=DIRECTION('center_axis',(0.,1.,0.));
#256=DIRECTION('ref_axis',(0.,0.,1.));
#257=DIRECTION('center_axis',(1.,0.,0.));
#258=DIRECTION('ref_axis',(0.,-1.,0.));
#259=DIRECTION('center_axis',(1.,0.,0.));
#260=DIRECTION('ref_axis',(0.,-1.,0.));
#261=DIRECTION('center_axis',(-1.,0.,0.));
#262=DIRECTION('ref_axis',(0.,-1.,0.));
#263=DIRECTION('center_axis',(1.,0.,0.));
#264=DIRECTION('ref_axis',(0.,0.,-1.));
#265=DIRECTION('center_axis',(1.,0.,0.));
#266=DIRECTION('ref_axis',(0.,0.,-1.));
#267=CARTESIAN_POINT('',(0.,0.,0.));
#268=CARTESIAN_POINT('Origin',(0.,0.,0.));
#269=CARTESIAN_POINT('',(12.,7.34788079488412E-016,6.));
#270=CARTESIAN_POINT('Origin',(12.,0.,0.));
#271=CARTESIAN_POINT('',(0.,7.34788079488412E-016,6.));
#272=CARTESIAN_POINT('Origin',(0.,0.,0.));
#273=CARTESIAN_POINT('Origin',(12.,-1.54197642309049E-016,-3.69627624575467E-016));
#274=CARTESIAN_POINT('',(12.,6.73555739531044E-016,5.5));
#275=CARTESIAN_POINT('Origin',(12.,0.,0.));
#276=CARTESIAN_POINT('Origin',(19.65,19.65,0.));
#277=CARTESIAN_POINT('',(25.65,7.65,-7.34788079488412E-016));
#278=CARTESIAN_POINT('Origin',(19.65,7.65,0.));
#279=CARTESIAN_POINT('',(25.65,19.65,-7.34788079488412E-016));
#280=CARTESIAN_POINT('Origin',(19.65,19.65,0.));
#281=CARTESIAN_POINT('Origin',(19.65,7.65,1.54197642309049E-016));
#282=CARTESIAN_POINT('',(25.15,7.65,-6.73555739531044E-016));
#283=CARTESIAN_POINT('Origin',(19.65,7.65,0.));
#284=CARTESIAN_POINT('Origin',(39.3,0.,0.));
#285=CARTESIAN_POINT('',(27.3,7.34788079488412E-016,-6.));
#286=CARTESIAN_POINT('Origin',(27.3,0.,0.));
#287=CARTESIAN_POINT('',(39.3,7.34788079488412E-016,-6.));
#288=CARTESIAN_POINT('Origin',(39.3,0.,0.));
#289=CARTESIAN_POINT('Origin',(27.3,-1.54197642309049E-016,3.69627624575467E-016));
#290=CARTESIAN_POINT('',(27.3,6.73555739531044E-016,-5.5));
#291=CARTESIAN_POINT('Origin',(27.3,0.,0.));
#292=CARTESIAN_POINT('Origin',(19.65,19.65,0.));
#293=CARTESIAN_POINT('',(19.65,0.,5.5));
#294=CARTESIAN_POINT('',(19.65,0.,-5.5));
#295=CARTESIAN_POINT('Origin',(19.65,-2.22044604925031E-015,0.));
#296=CARTESIAN_POINT('Origin',(19.65,-2.22044604925031E-015,0.));
#297=CARTESIAN_POINT('Origin',(39.3,0.,0.));
#298=CARTESIAN_POINT('Origin',(19.65,0.,0.));
#299=CARTESIAN_POINT('',(19.65,0.,8.25));
#300=CARTESIAN_POINT('',(19.65,0.,-8.25));
#301=CARTESIAN_POINT('Origin',(19.65,0.,0.));
#302=CARTESIAN_POINT('Origin',(19.65,0.,0.));
#303=CARTESIAN_POINT('',(11.4,19.65,1.01033360929657E-015));
#304=CARTESIAN_POINT('Origin',(19.65,19.65,0.));
#305=CARTESIAN_POINT('Origin',(19.65,19.65,0.));
#306=CARTESIAN_POINT('Origin',(0.,0.,0.));
#307=CARTESIAN_POINT('',(39.3,8.25,1.01033360929657E-015));
#308=CARTESIAN_POINT('Origin',(39.3,0.,0.));
#309=CARTESIAN_POINT('',(0.,8.25,1.01033360929657E-015));
#310=CARTESIAN_POINT('Origin',(0.,0.,0.));
#311=CARTESIAN_POINT('Origin',(39.3,-5.32769426885888E-016,0.));
#312=CARTESIAN_POINT('Origin',(0.,-5.32769426885888E-016,0.));
#313=UNCERTAINTY_MEASURE_WITH_UNIT(LENGTH_MEASURE(0.01),#315,
'DISTANCE_ACCURACY_VALUE',
'Maximum model space distance between geometric entities at asserted c
onnectivities');
#314=(
GEOMETRIC_REPRESENTATION_CONTEXT(3)
GLOBAL_UNCERTAINTY_ASSIGNED_CONTEXT((#313))
GLOBAL_UNIT_ASSIGNED_CONTEXT((#315,#318,#316))
REPRESENTATION_CONTEXT('','3D')
);
#315=(
LENGTH_UNIT()
NAMED_UNIT(*)
SI_UNIT(.MILLI.,.METRE.)
);
#316=(
NAMED_UNIT(*)
SI_UNIT($,.STERADIAN.)
SOLID_ANGLE_UNIT()
);
#317=DIMENSIONAL_EXPONENTS(0.,0.,0.,0.,0.,0.,0.);
#318=(
CONVERSION_BASED_UNIT('degree',#320)
NAMED_UNIT(#317)
PLANE_ANGLE_UNIT()
);
#319=(
NAMED_UNIT(*)
PLANE_ANGLE_UNIT()
SI_UNIT($,.RADIAN.)
);
#320=PLANE_ANGLE_MEASURE_WITH_UNIT(PLANE_ANGLE_MEASURE(0.01745329252),#319);
#321=SHAPE_DEFINITION_REPRESENTATION(#322,#323);
#322=PRODUCT_DEFINITION_SHAPE('',$,#325);
#323=SHAPE_REPRESENTATION('',(#177),#314);
#324=PRODUCT_DEFINITION_CONTEXT('3D Mechanical Parts',#328,'design');
#325=PRODUCT_DEFINITION('TIV012','TIV012',#326,#324);
#326=PRODUCT_DEFINITION_FORMATION('',$,#330);
#327=APPLICATION_PROTOCOL_DEFINITION('international standard',
'automotive_design',2009,#328);
#328=APPLICATION_CONTEXT(
'Core Data for Automotive Mechanical Design Process');
#329=PRODUCT_CONTEXT('3D Mechanical Parts',#328,'mechanical');
#330=PRODUCT('TIV012','TIV012',$,(#329));
#331=PRESENTATION_STYLE_ASSIGNMENT((#332));
#332=SURFACE_STYLE_USAGE(.BOTH.,#333);
#333=SURFACE_SIDE_STYLE($,(#334));
#334=SURFACE_STYLE_FILL_AREA(#335);
#335=FILL_AREA_STYLE($,(#336));
#336=FILL_AREA_STYLE_COLOUR($,#337);
#337=COLOUR_RGB('',0.509803921568627,0.509803921568627,0.588235294117647);
ENDSEC;
END-ISO-10303-21;
