ISO-10303-21;
HEADER;
FILE_DESCRIPTION( ( '' ), '1' );
FILE_NAME( '//se01002/users/anro/AGRU_12705063000_PPH_grau_Rohr__5m_630X10_0__Ventilation_10.stp', '2018-02-07T08:12:47', ( '' ), ( '' ), ' ', ' ', ' ' );
FILE_SCHEMA( ( 'automotive_design' ) );
ENDSEC;
DATA;
#1 = MECHANICAL_DESIGN_GEOMETRIC_PRESENTATION_REPRESENTATION( ' ', ( #10, #11, #12, #13, #14, #15, #16, #17, #18, #19, #20, #21, #22, #23, #24, #25, #26, #27, #28, #29, #30, #31, #32, #33, #34, #35, #36 ), #6 );
#2 = PRODUCT_DEFINITION_CONTEXT( '', #37, 'design' );
#3 = APPLICATION_PROTOCOL_DEFINITION( 'INTERNATIONAL STANDARD', 'automotive_design', 1994, #37 );
#4 = PRODUCT_CATEGORY_RELATIONSHIP( 'NONE', 'NONE', #38, #39 );
#5 = SHAPE_DEFINITION_REPRESENTATION( #40, #41 );
#6 =  ( GEOMETRIC_REPRESENTATION_CONTEXT( 3 )GLOBAL_UNCERTAINTY_ASSIGNED_CONTEXT( ( #44 ) )GLOBAL_UNIT_ASSIGNED_CONTEXT( ( #46, #47, #48 ) )REPRESENTATION_CONTEXT( 'NONE', 'WORKSPACE' ) );
#10 = STYLED_ITEM( '', ( #50 ), #51 );
#11 = STYLED_ITEM( '', ( #52 ), #53 );
#12 = STYLED_ITEM( '', ( #54 ), #55 );
#13 = STYLED_ITEM( '', ( #56 ), #57 );
#14 = STYLED_ITEM( '', ( #58 ), #59 );
#15 = STYLED_ITEM( '', ( #60 ), #61 );
#16 = STYLED_ITEM( '', ( #62 ), #63 );
#17 = STYLED_ITEM( '', ( #64 ), #65 );
#18 = STYLED_ITEM( '', ( #66 ), #67 );
#19 = STYLED_ITEM( '', ( #68 ), #69 );
#20 = STYLED_ITEM( '', ( #70 ), #71 );
#21 = STYLED_ITEM( '', ( #72 ), #73 );
#22 = STYLED_ITEM( '', ( #74 ), #75 );
#23 = STYLED_ITEM( '', ( #76 ), #77 );
#24 = STYLED_ITEM( '', ( #78 ), #79 );
#25 = STYLED_ITEM( '', ( #80 ), #81 );
#26 = STYLED_ITEM( '', ( #82 ), #83 );
#27 = STYLED_ITEM( '', ( #84 ), #85 );
#28 = STYLED_ITEM( '', ( #86 ), #87 );
#29 = STYLED_ITEM( '', ( #88 ), #89 );
#30 = STYLED_ITEM( '', ( #90 ), #91 );
#31 = STYLED_ITEM( '', ( #92 ), #93 );
#32 = STYLED_ITEM( '', ( #94 ), #95 );
#33 = STYLED_ITEM( '', ( #96 ), #97 );
#34 = STYLED_ITEM( '', ( #98 ), #99 );
#35 = STYLED_ITEM( '', ( #100 ), #101 );
#36 = STYLED_ITEM( '', ( #102 ), #103 );
#37 = APPLICATION_CONTEXT( ' ' );
#38 = PRODUCT_CATEGORY( 'part', 'NONE' );
#39 = PRODUCT_RELATED_PRODUCT_CATEGORY( 'detail', ' ', ( #104 ) );
#40 = PRODUCT_DEFINITION_SHAPE( 'NONE', 'NONE', #105 );
#41 = ADVANCED_BREP_SHAPE_REPRESENTATION( '1', ( #75, #106 ), #6 );
#44 = UNCERTAINTY_MEASURE_WITH_UNIT( LENGTH_MEASURE( 1.00000000000000E-006 ), #46, '', '' );
#46 =  ( CONVERSION_BASED_UNIT( 'MILLIMETRE', #109 )LENGTH_UNIT(  )NAMED_UNIT( #112 ) );
#47 =  ( NAMED_UNIT( #114 )PLANE_ANGLE_UNIT(  )SI_UNIT( $, .RADIAN. ) );
#48 =  ( NAMED_UNIT( #114 )SOLID_ANGLE_UNIT(  )SI_UNIT( $, .STERADIAN. ) );
#50 = PRESENTATION_STYLE_ASSIGNMENT( ( #120 ) );
#51 = EDGE_CURVE( '', #79, #91, #121, .T. );
#52 = PRESENTATION_STYLE_ASSIGNMENT( ( #122 ) );
#53 = EDGE_CURVE( '', #55, #83, #123, .T. );
#54 = PRESENTATION_STYLE_ASSIGNMENT( ( #124 ) );
#55 = VERTEX_POINT( '', #125 );
#56 = PRESENTATION_STYLE_ASSIGNMENT( ( #126 ) );
#57 = VERTEX_POINT( '', #127 );
#58 = PRESENTATION_STYLE_ASSIGNMENT( ( #128 ) );
#59 = EDGE_CURVE( '', #103, #67, #129, .T. );
#60 = PRESENTATION_STYLE_ASSIGNMENT( ( #130 ) );
#61 = EDGE_CURVE( '', #65, #79, #131, .T. );
#62 = PRESENTATION_STYLE_ASSIGNMENT( ( #132 ) );
#63 = ADVANCED_FACE( '', ( #133 ), #134, .T. );
#64 = PRESENTATION_STYLE_ASSIGNMENT( ( #135 ) );
#65 = VERTEX_POINT( '', #136 );
#66 = PRESENTATION_STYLE_ASSIGNMENT( ( #137 ) );
#67 = VERTEX_POINT( '', #138 );
#68 = PRESENTATION_STYLE_ASSIGNMENT( ( #139 ) );
#69 = EDGE_CURVE( '', #103, #83, #140, .T. );
#70 = PRESENTATION_STYLE_ASSIGNMENT( ( #141 ) );
#71 = EDGE_CURVE( '', #67, #55, #142, .T. );
#72 = PRESENTATION_STYLE_ASSIGNMENT( ( #143 ) );
#73 = ADVANCED_FACE( '', ( #144, #145 ), #146, .T. );
#74 = PRESENTATION_STYLE_ASSIGNMENT( ( #147 ) );
#75 = MANIFOLD_SOLID_BREP( '1', #148 );
#76 = PRESENTATION_STYLE_ASSIGNMENT( ( #149 ) );
#77 = EDGE_CURVE( '', #55, #67, #150, .T. );
#78 = PRESENTATION_STYLE_ASSIGNMENT( ( #151 ) );
#79 = VERTEX_POINT( '', #152 );
#80 = PRESENTATION_STYLE_ASSIGNMENT( ( #153 ) );
#81 = ADVANCED_FACE( '', ( #154 ), #155, .F. );
#82 = PRESENTATION_STYLE_ASSIGNMENT( ( #156 ) );
#83 = VERTEX_POINT( '', #157 );
#84 = PRESENTATION_STYLE_ASSIGNMENT( ( #158 ) );
#85 = EDGE_CURVE( '', #83, #103, #159, .T. );
#86 = PRESENTATION_STYLE_ASSIGNMENT( ( #160 ) );
#87 = EDGE_CURVE( '', #91, #57, #161, .T. );
#88 = PRESENTATION_STYLE_ASSIGNMENT( ( #162 ) );
#89 = EDGE_CURVE( '', #57, #91, #163, .T. );
#90 = PRESENTATION_STYLE_ASSIGNMENT( ( #164 ) );
#91 = VERTEX_POINT( '', #165 );
#92 = PRESENTATION_STYLE_ASSIGNMENT( ( #166 ) );
#93 = EDGE_CURVE( '', #79, #65, #167, .T. );
#94 = PRESENTATION_STYLE_ASSIGNMENT( ( #168 ) );
#95 = ADVANCED_FACE( '', ( #169 ), #170, .F. );
#96 = PRESENTATION_STYLE_ASSIGNMENT( ( #171 ) );
#97 = EDGE_CURVE( '', #57, #65, #172, .T. );
#98 = PRESENTATION_STYLE_ASSIGNMENT( ( #173 ) );
#99 = ADVANCED_FACE( '', ( #174, #175 ), #176, .F. );
#100 = PRESENTATION_STYLE_ASSIGNMENT( ( #177 ) );
#101 = ADVANCED_FACE( '', ( #178 ), #179, .T. );
#102 = PRESENTATION_STYLE_ASSIGNMENT( ( #180 ) );
#103 = VERTEX_POINT( '', #181 );
#104 = PRODUCT( '1', '1', 'PART-1-DESC', ( #182 ) );
#105 = PRODUCT_DEFINITION( 'NONE', 'NONE', #183, #2 );
#106 = AXIS2_PLACEMENT_3D( '', #184, #185, #186 );
#109 = LENGTH_MEASURE_WITH_UNIT( LENGTH_MEASURE( 1.00000000000000 ), #187 );
#112 = DIMENSIONAL_EXPONENTS( 1.00000000000000, 0.000000000000000, 0.000000000000000, 0.000000000000000, 0.000000000000000, 0.000000000000000, 0.000000000000000 );
#114 = DIMENSIONAL_EXPONENTS( 0.000000000000000, 0.000000000000000, 0.000000000000000, 0.000000000000000, 0.000000000000000, 0.000000000000000, 0.000000000000000 );
#120 = CURVE_STYLE( '', #188, POSITIVE_LENGTH_MEASURE( 1.00000000000000E-006 ), #189 );
#121 = LINE( '', #190, #191 );
#122 = CURVE_STYLE( '', #192, POSITIVE_LENGTH_MEASURE( 1.00000000000000E-006 ), #193 );
#123 = LINE( '', #194, #195 );
#124 = POINT_STYLE( ' ', #196, POSITIVE_LENGTH_MEASURE( 1.00000000000000E-006 ), #197 );
#125 = CARTESIAN_POINT( '', ( 5000.00000000000, 3.73504937915825E-014, 305.000000000000 ) );
#126 = POINT_STYLE( ' ', #198, POSITIVE_LENGTH_MEASURE( 1.00000000000000E-006 ), #199 );
#127 = CARTESIAN_POINT( '', ( 0.000000000000000, 0.000000000000000, -315.000000000000 ) );
#128 = CURVE_STYLE( '', #200, POSITIVE_LENGTH_MEASURE( 1.00000000000000E-006 ), #201 );
#129 = LINE( '', #202, #203 );
#130 = CURVE_STYLE( '', #204, POSITIVE_LENGTH_MEASURE( 1.00000000000000E-006 ), #205 );
#131 = CIRCLE( '', #206, 315.000000000000 );
#132 = SURFACE_STYLE_USAGE( .BOTH., #207 );
#133 = FACE_OUTER_BOUND( '', #208, .T. );
#134 = CYLINDRICAL_SURFACE( '', #209, 315.000000000000 );
#135 = POINT_STYLE( ' ', #210, POSITIVE_LENGTH_MEASURE( 1.00000000000000E-006 ), #211 );
#136 = CARTESIAN_POINT( '', ( 5000.00000000000, 0.000000000000000, -315.000000000000 ) );
#137 = POINT_STYLE( ' ', #212, POSITIVE_LENGTH_MEASURE( 1.00000000000000E-006 ), #213 );
#138 = CARTESIAN_POINT( '', ( 5000.00000000000, 0.000000000000000, -305.000000000000 ) );
#139 = CURVE_STYLE( '', #214, POSITIVE_LENGTH_MEASURE( 1.00000000000000E-006 ), #215 );
#140 = CIRCLE( '', #216, 305.000000000000 );
#141 = CURVE_STYLE( '', #217, POSITIVE_LENGTH_MEASURE( 1.00000000000000E-006 ), #218 );
#142 = CIRCLE( '', #219, 305.000000000000 );
#143 = SURFACE_STYLE_USAGE( .BOTH., #220 );
#144 = FACE_OUTER_BOUND( '', #221, .T. );
#145 = FACE_BOUND( '', #222, .T. );
#146 = PLANE( '', #223 );
#147 = SURFACE_STYLE_USAGE( .BOTH., #224 );
#148 = CLOSED_SHELL( '', ( #63, #81, #95, #101, #73, #99 ) );
#149 = CURVE_STYLE( '', #225, POSITIVE_LENGTH_MEASURE( 1.00000000000000E-006 ), #226 );
#150 = CIRCLE( '', #227, 305.000000000000 );
#151 = POINT_STYLE( ' ', #228, POSITIVE_LENGTH_MEASURE( 1.00000000000000E-006 ), #229 );
#152 = CARTESIAN_POINT( '', ( 5000.00000000000, 3.85751001454049E-014, 315.000000000000 ) );
#153 = SURFACE_STYLE_USAGE( .BOTH., #230 );
#154 = FACE_OUTER_BOUND( '', #231, .T. );
#155 = CYLINDRICAL_SURFACE( '', #232, 305.000000000000 );
#156 = POINT_STYLE( ' ', #233, POSITIVE_LENGTH_MEASURE( 1.00000000000000E-006 ), #234 );
#157 = CARTESIAN_POINT( '', ( 0.000000000000000, 3.73504937915825E-014, 305.000000000000 ) );
#158 = CURVE_STYLE( '', #235, POSITIVE_LENGTH_MEASURE( 1.00000000000000E-006 ), #236 );
#159 = CIRCLE( '', #237, 305.000000000000 );
#160 = CURVE_STYLE( '', #238, POSITIVE_LENGTH_MEASURE( 1.00000000000000E-006 ), #239 );
#161 = CIRCLE( '', #240, 315.000000000000 );
#162 = CURVE_STYLE( '', #241, POSITIVE_LENGTH_MEASURE( 1.00000000000000E-006 ), #242 );
#163 = CIRCLE( '', #243, 315.000000000000 );
#164 = POINT_STYLE( ' ', #244, POSITIVE_LENGTH_MEASURE( 1.00000000000000E-006 ), #245 );
#165 = CARTESIAN_POINT( '', ( 0.000000000000000, 3.85751001454049E-014, 315.000000000000 ) );
#166 = CURVE_STYLE( '', #246, POSITIVE_LENGTH_MEASURE( 1.00000000000000E-006 ), #247 );
#167 = CIRCLE( '', #248, 315.000000000000 );
#168 = SURFACE_STYLE_USAGE( .BOTH., #249 );
#169 = FACE_OUTER_BOUND( '', #250, .T. );
#170 = CYLINDRICAL_SURFACE( '', #251, 305.000000000000 );
#171 = CURVE_STYLE( '', #252, POSITIVE_LENGTH_MEASURE( 1.00000000000000E-006 ), #253 );
#172 = LINE( '', #254, #255 );
#173 = SURFACE_STYLE_USAGE( .BOTH., #256 );
#174 = FACE_OUTER_BOUND( '', #257, .T. );
#175 = FACE_BOUND( '', #258, .T. );
#176 = PLANE( '', #259 );
#177 = SURFACE_STYLE_USAGE( .BOTH., #260 );
#178 = FACE_OUTER_BOUND( '', #261, .T. );
#179 = CYLINDRICAL_SURFACE( '', #262, 315.000000000000 );
#180 = POINT_STYLE( ' ', #263, POSITIVE_LENGTH_MEASURE( 1.00000000000000E-006 ), #264 );
#181 = CARTESIAN_POINT( '', ( 0.000000000000000, 0.000000000000000, -305.000000000000 ) );
#182 = PRODUCT_CONTEXT( '', #37, 'mechanical' );
#183 = PRODUCT_DEFINITION_FORMATION_WITH_SPECIFIED_SOURCE( ' ', 'NONE', #104, .NOT_KNOWN. );
#184 = CARTESIAN_POINT( '', ( 0.000000000000000, 0.000000000000000, 0.000000000000000 ) );
#185 = DIRECTION( '', ( 0.000000000000000, 0.000000000000000, 1.00000000000000 ) );
#186 = DIRECTION( '', ( 1.00000000000000, 0.000000000000000, 0.000000000000000 ) );
#187 =  ( NAMED_UNIT( #112 )LENGTH_UNIT(  )SI_UNIT( .MILLI., .METRE. ) );
#188 = DRAUGHTING_PRE_DEFINED_CURVE_FONT( 'continuous' );
#189 = COLOUR_RGB( '', 0.689999997615810, 0.689999997615810, 0.689999997615810 );
#190 = CARTESIAN_POINT( '', ( 0.000000000000000, 3.85751001454049E-014, 315.000000000000 ) );
#191 = VECTOR( '', #266, 1.00000000000000 );
#192 = DRAUGHTING_PRE_DEFINED_CURVE_FONT( 'continuous' );
#193 = COLOUR_RGB( '', 0.689999997615810, 0.689999997615810, 0.689999997615810 );
#194 = CARTESIAN_POINT( '', ( 0.000000000000000, 3.73504937915825E-014, 305.000000000000 ) );
#195 = VECTOR( '', #267, 1.00000000000000 );
#196 = PRE_DEFINED_MARKER( '' );
#197 = COLOUR_RGB( '', 0.689999997615810, 0.689999997615810, 0.689999997615810 );
#198 = PRE_DEFINED_MARKER( '' );
#199 = COLOUR_RGB( '', 0.689999997615810, 0.689999997615810, 0.689999997615810 );
#200 = DRAUGHTING_PRE_DEFINED_CURVE_FONT( 'continuous' );
#201 = COLOUR_RGB( '', 0.689999997615810, 0.689999997615810, 0.689999997615810 );
#202 = CARTESIAN_POINT( '', ( 0.000000000000000, -3.73504937915825E-014, -305.000000000000 ) );
#203 = VECTOR( '', #268, 1.00000000000000 );
#204 = DRAUGHTING_PRE_DEFINED_CURVE_FONT( 'continuous' );
#205 = COLOUR_RGB( '', 0.689999997615810, 0.689999997615810, 0.689999997615810 );
#206 = AXIS2_PLACEMENT_3D( '', #269, #270, #271 );
#207 = SURFACE_SIDE_STYLE( '', ( #272 ) );
#208 = EDGE_LOOP( '', ( #273, #274, #275, #276 ) );
#209 = AXIS2_PLACEMENT_3D( '', #277, #278, #279 );
#210 = PRE_DEFINED_MARKER( '' );
#211 = COLOUR_RGB( '', 0.689999997615810, 0.689999997615810, 0.689999997615810 );
#212 = PRE_DEFINED_MARKER( '' );
#213 = COLOUR_RGB( '', 0.689999997615810, 0.689999997615810, 0.689999997615810 );
#214 = DRAUGHTING_PRE_DEFINED_CURVE_FONT( 'continuous' );
#215 = COLOUR_RGB( '', 0.689999997615810, 0.689999997615810, 0.689999997615810 );
#216 = AXIS2_PLACEMENT_3D( '', #280, #281, #282 );
#217 = DRAUGHTING_PRE_DEFINED_CURVE_FONT( 'continuous' );
#218 = COLOUR_RGB( '', 0.689999997615810, 0.689999997615810, 0.689999997615810 );
#219 = AXIS2_PLACEMENT_3D( '', #283, #284, #285 );
#220 = SURFACE_SIDE_STYLE( '', ( #286 ) );
#221 = EDGE_LOOP( '', ( #287, #288 ) );
#222 = EDGE_LOOP( '', ( #289, #290 ) );
#223 = AXIS2_PLACEMENT_3D( '', #291, #292, #293 );
#224 = SURFACE_SIDE_STYLE( '', ( #294 ) );
#225 = DRAUGHTING_PRE_DEFINED_CURVE_FONT( 'continuous' );
#226 = COLOUR_RGB( '', 0.689999997615810, 0.689999997615810, 0.689999997615810 );
#227 = AXIS2_PLACEMENT_3D( '', #295, #296, #297 );
#228 = PRE_DEFINED_MARKER( '' );
#229 = COLOUR_RGB( '', 0.689999997615810, 0.689999997615810, 0.689999997615810 );
#230 = SURFACE_SIDE_STYLE( '', ( #298 ) );
#231 = EDGE_LOOP( '', ( #299, #300, #301, #302 ) );
#232 = AXIS2_PLACEMENT_3D( '', #303, #304, #305 );
#233 = PRE_DEFINED_MARKER( '' );
#234 = COLOUR_RGB( '', 0.689999997615810, 0.689999997615810, 0.689999997615810 );
#235 = DRAUGHTING_PRE_DEFINED_CURVE_FONT( 'continuous' );
#236 = COLOUR_RGB( '', 0.689999997615810, 0.689999997615810, 0.689999997615810 );
#237 = AXIS2_PLACEMENT_3D( '', #306, #307, #308 );
#238 = DRAUGHTING_PRE_DEFINED_CURVE_FONT( 'continuous' );
#239 = COLOUR_RGB( '', 0.689999997615810, 0.689999997615810, 0.689999997615810 );
#240 = AXIS2_PLACEMENT_3D( '', #309, #310, #311 );
#241 = DRAUGHTING_PRE_DEFINED_CURVE_FONT( 'continuous' );
#242 = COLOUR_RGB( '', 0.689999997615810, 0.689999997615810, 0.689999997615810 );
#243 = AXIS2_PLACEMENT_3D( '', #312, #313, #314 );
#244 = PRE_DEFINED_MARKER( '' );
#245 = COLOUR_RGB( '', 0.689999997615810, 0.689999997615810, 0.689999997615810 );
#246 = DRAUGHTING_PRE_DEFINED_CURVE_FONT( 'continuous' );
#247 = COLOUR_RGB( '', 0.689999997615810, 0.689999997615810, 0.689999997615810 );
#248 = AXIS2_PLACEMENT_3D( '', #315, #316, #317 );
#249 = SURFACE_SIDE_STYLE( '', ( #318 ) );
#250 = EDGE_LOOP( '', ( #319, #320, #321, #322 ) );
#251 = AXIS2_PLACEMENT_3D( '', #323, #324, #325 );
#252 = DRAUGHTING_PRE_DEFINED_CURVE_FONT( 'continuous' );
#253 = COLOUR_RGB( '', 0.689999997615810, 0.689999997615810, 0.689999997615810 );
#254 = CARTESIAN_POINT( '', ( 0.000000000000000, -3.85751001454049E-014, -315.000000000000 ) );
#255 = VECTOR( '', #326, 1.00000000000000 );
#256 = SURFACE_SIDE_STYLE( '', ( #327 ) );
#257 = EDGE_LOOP( '', ( #328, #329 ) );
#258 = EDGE_LOOP( '', ( #330, #331 ) );
#259 = AXIS2_PLACEMENT_3D( '', #332, #333, #334 );
#260 = SURFACE_SIDE_STYLE( '', ( #335 ) );
#261 = EDGE_LOOP( '', ( #336, #337, #338, #339 ) );
#262 = AXIS2_PLACEMENT_3D( '', #340, #341, #342 );
#263 = PRE_DEFINED_MARKER( '' );
#264 = COLOUR_RGB( '', 0.689999997615810, 0.689999997615810, 0.689999997615810 );
#266 = DIRECTION( '', ( -1.00000000000000, -0.000000000000000, -0.000000000000000 ) );
#267 = DIRECTION( '', ( -1.00000000000000, 0.000000000000000, 0.000000000000000 ) );
#268 = DIRECTION( '', ( 1.00000000000000, 0.000000000000000, 0.000000000000000 ) );
#269 = CARTESIAN_POINT( '', ( 5000.00000000000, 0.000000000000000, 0.000000000000000 ) );
#270 = DIRECTION( '', ( -1.00000000000000, 0.000000000000000, 0.000000000000000 ) );
#271 = DIRECTION( '', ( 0.000000000000000, 0.000000000000000, -1.00000000000000 ) );
#272 = SURFACE_STYLE_FILL_AREA( #343 );
#273 = ORIENTED_EDGE( '', *, *, #97, .F. );
#274 = ORIENTED_EDGE( '', *, *, #89, .T. );
#275 = ORIENTED_EDGE( '', *, *, #51, .F. );
#276 = ORIENTED_EDGE( '', *, *, #93, .T. );
#277 = CARTESIAN_POINT( '', ( 0.000000000000000, 0.000000000000000, 0.000000000000000 ) );
#278 = DIRECTION( '', ( -1.00000000000000, -0.000000000000000, -0.000000000000000 ) );
#279 = DIRECTION( '', ( 0.000000000000000, 0.000000000000000, -1.00000000000000 ) );
#280 = CARTESIAN_POINT( '', ( 0.000000000000000, 0.000000000000000, 0.000000000000000 ) );
#281 = DIRECTION( '', ( 1.00000000000000, -0.000000000000000, 0.000000000000000 ) );
#282 = DIRECTION( '', ( 0.000000000000000, 0.000000000000000, -1.00000000000000 ) );
#283 = CARTESIAN_POINT( '', ( 5000.00000000000, 0.000000000000000, 0.000000000000000 ) );
#284 = DIRECTION( '', ( 1.00000000000000, 0.000000000000000, 0.000000000000000 ) );
#285 = DIRECTION( '', ( 0.000000000000000, 0.000000000000000, -1.00000000000000 ) );
#286 = SURFACE_STYLE_FILL_AREA( #344 );
#287 = ORIENTED_EDGE( '', *, *, #61, .F. );
#288 = ORIENTED_EDGE( '', *, *, #93, .F. );
#289 = ORIENTED_EDGE( '', *, *, #71, .F. );
#290 = ORIENTED_EDGE( '', *, *, #77, .F. );
#291 = CARTESIAN_POINT( '', ( 5000.00000000000, 0.000000000000000, 0.000000000000000 ) );
#292 = DIRECTION( '', ( 1.00000000000000, 0.000000000000000, 0.000000000000000 ) );
#293 = DIRECTION( '', ( 0.000000000000000, 0.000000000000000, -1.00000000000000 ) );
#294 = SURFACE_STYLE_FILL_AREA( #345 );
#295 = CARTESIAN_POINT( '', ( 5000.00000000000, 0.000000000000000, 0.000000000000000 ) );
#296 = DIRECTION( '', ( 1.00000000000000, 0.000000000000000, 0.000000000000000 ) );
#297 = DIRECTION( '', ( 0.000000000000000, 0.000000000000000, -1.00000000000000 ) );
#298 = SURFACE_STYLE_FILL_AREA( #346 );
#299 = ORIENTED_EDGE( '', *, *, #59, .F. );
#300 = ORIENTED_EDGE( '', *, *, #85, .F. );
#301 = ORIENTED_EDGE( '', *, *, #53, .F. );
#302 = ORIENTED_EDGE( '', *, *, #77, .T. );
#303 = CARTESIAN_POINT( '', ( 0.000000000000000, 0.000000000000000, 0.000000000000000 ) );
#304 = DIRECTION( '', ( -1.00000000000000, -0.000000000000000, -0.000000000000000 ) );
#305 = DIRECTION( '', ( 0.000000000000000, 0.000000000000000, -1.00000000000000 ) );
#306 = CARTESIAN_POINT( '', ( 0.000000000000000, 0.000000000000000, 0.000000000000000 ) );
#307 = DIRECTION( '', ( 1.00000000000000, -0.000000000000000, 0.000000000000000 ) );
#308 = DIRECTION( '', ( 0.000000000000000, 0.000000000000000, -1.00000000000000 ) );
#309 = CARTESIAN_POINT( '', ( 0.000000000000000, 0.000000000000000, 0.000000000000000 ) );
#310 = DIRECTION( '', ( 1.00000000000000, -0.000000000000000, 0.000000000000000 ) );
#311 = DIRECTION( '', ( 0.000000000000000, 0.000000000000000, -1.00000000000000 ) );
#312 = CARTESIAN_POINT( '', ( 0.000000000000000, 0.000000000000000, 0.000000000000000 ) );
#313 = DIRECTION( '', ( 1.00000000000000, -0.000000000000000, 0.000000000000000 ) );
#314 = DIRECTION( '', ( 0.000000000000000, 0.000000000000000, -1.00000000000000 ) );
#315 = CARTESIAN_POINT( '', ( 5000.00000000000, 0.000000000000000, 0.000000000000000 ) );
#316 = DIRECTION( '', ( -1.00000000000000, 0.000000000000000, 0.000000000000000 ) );
#317 = DIRECTION( '', ( 0.000000000000000, 0.000000000000000, -1.00000000000000 ) );
#318 = SURFACE_STYLE_FILL_AREA( #347 );
#319 = ORIENTED_EDGE( '', *, *, #59, .T. );
#320 = ORIENTED_EDGE( '', *, *, #71, .T. );
#321 = ORIENTED_EDGE( '', *, *, #53, .T. );
#322 = ORIENTED_EDGE( '', *, *, #69, .F. );
#323 = CARTESIAN_POINT( '', ( 0.000000000000000, 0.000000000000000, 0.000000000000000 ) );
#324 = DIRECTION( '', ( -1.00000000000000, -0.000000000000000, -0.000000000000000 ) );
#325 = DIRECTION( '', ( 0.000000000000000, 0.000000000000000, -1.00000000000000 ) );
#326 = DIRECTION( '', ( 1.00000000000000, 0.000000000000000, 0.000000000000000 ) );
#327 = SURFACE_STYLE_FILL_AREA( #348 );
#328 = ORIENTED_EDGE( '', *, *, #89, .F. );
#329 = ORIENTED_EDGE( '', *, *, #87, .F. );
#330 = ORIENTED_EDGE( '', *, *, #69, .T. );
#331 = ORIENTED_EDGE( '', *, *, #85, .T. );
#332 = CARTESIAN_POINT( '', ( 0.000000000000000, 0.000000000000000, 0.000000000000000 ) );
#333 = DIRECTION( '', ( 1.00000000000000, 0.000000000000000, 0.000000000000000 ) );
#334 = DIRECTION( '', ( 0.000000000000000, 0.000000000000000, -1.00000000000000 ) );
#335 = SURFACE_STYLE_FILL_AREA( #349 );
#336 = ORIENTED_EDGE( '', *, *, #97, .T. );
#337 = ORIENTED_EDGE( '', *, *, #61, .T. );
#338 = ORIENTED_EDGE( '', *, *, #51, .T. );
#339 = ORIENTED_EDGE( '', *, *, #87, .T. );
#340 = CARTESIAN_POINT( '', ( 0.000000000000000, 0.000000000000000, 0.000000000000000 ) );
#341 = DIRECTION( '', ( -1.00000000000000, -0.000000000000000, -0.000000000000000 ) );
#342 = DIRECTION( '', ( 0.000000000000000, 0.000000000000000, -1.00000000000000 ) );
#343 = FILL_AREA_STYLE( '', ( #350 ) );
#344 = FILL_AREA_STYLE( '', ( #351 ) );
#345 = FILL_AREA_STYLE( '', ( #352 ) );
#346 = FILL_AREA_STYLE( '', ( #353 ) );
#347 = FILL_AREA_STYLE( '', ( #354 ) );
#348 = FILL_AREA_STYLE( '', ( #355 ) );
#349 = FILL_AREA_STYLE( '', ( #356 ) );
#350 = FILL_AREA_STYLE_COLOUR( '', #357 );
#351 = FILL_AREA_STYLE_COLOUR( '', #358 );
#352 = FILL_AREA_STYLE_COLOUR( '', #359 );
#353 = FILL_AREA_STYLE_COLOUR( '', #360 );
#354 = FILL_AREA_STYLE_COLOUR( '', #361 );
#355 = FILL_AREA_STYLE_COLOUR( '', #362 );
#356 = FILL_AREA_STYLE_COLOUR( '', #363 );
#357 = COLOUR_RGB( '', 0.689999997615810, 0.689999997615810, 0.689999997615810 );
#358 = COLOUR_RGB( '', 0.689999997615810, 0.689999997615810, 0.689999997615810 );
#359 = COLOUR_RGB( '', 0.689999997615810, 0.689999997615810, 0.689999997615810 );
#360 = COLOUR_RGB( '', 0.689999997615810, 0.689999997615810, 0.689999997615810 );
#361 = COLOUR_RGB( '', 0.689999997615810, 0.689999997615810, 0.689999997615810 );
#362 = COLOUR_RGB( '', 0.689999997615810, 0.689999997615810, 0.689999997615810 );
#363 = COLOUR_RGB( '', 0.689999997615810, 0.689999997615810, 0.689999997615810 );
ENDSEC;
END-ISO-10303-21;
