ISO-10303-21;
HEADER;
/* Generated by software containing ST-Developer
 * from STEP Tools, Inc. (www.steptools.com) 
 */

FILE_DESCRIPTION(
/* description */ (
'SIMONA PE 100 Adapter mit Au\X\DFengewinde gespritzt R  d 50'),
/* implementation_level */ '2;1');

FILE_NAME(
/* name */ 
'E:\\MS\\Dateien\\AD_LSAG_FG\\20000017_PE0100------AD---LSAG-FG-R---SW
09500----_50_SDR_11.stp',
/* time_stamp */ '2015-09-14T09:59:42+02:00',
/* author */ ('markus.spaeth'),
/* organization */ ('SIMONA AG'),
/* preprocessor_version */ 'ST-DEVELOPER v15.6',
/* originating_system */ 'Autodesk Inventor 2015',
/* authorisation */ '');

FILE_SCHEMA (('AUTOMOTIVE_DESIGN { 1 0 10303 214 3 1 1 }'));
ENDSEC;

DATA;
#10=MECHANICAL_DESIGN_GEOMETRIC_PRESENTATION_REPRESENTATION('',(#243,#230,
#242,#232,#231,#233,#241,#235,#240,#234,#237,#236,#229,#238,#239,#244,#245),
#427);
#11=SHAPE_REPRESENTATION_RELATIONSHIP('SRR','None',#436,#12);
#12=ADVANCED_BREP_SHAPE_REPRESENTATION($,(#13),#426);
#13=MANIFOLD_SOLID_BREP('Volumenk\X\F6rper1',#262);
#14=LINE('',#380,#32);
#15=LINE('',#382,#33);
#16=LINE('',#384,#34);
#17=LINE('',#386,#35);
#18=LINE('',#388,#36);
#19=LINE('',#389,#37);
#20=LINE('',#392,#38);
#21=LINE('',#394,#39);
#22=LINE('',#395,#40);
#23=LINE('',#398,#41);
#24=LINE('',#399,#42);
#25=LINE('',#402,#43);
#26=LINE('',#403,#44);
#27=LINE('',#414,#45);
#28=LINE('',#416,#46);
#29=LINE('',#417,#47);
#30=LINE('',#419,#48);
#31=LINE('',#421,#49);
#32=VECTOR('',#315,31.7542648054294);
#33=VECTOR('',#316,31.7542648054294);
#34=VECTOR('',#317,31.7542648054294);
#35=VECTOR('',#318,31.7542648054294);
#36=VECTOR('',#319,31.7542648054294);
#37=VECTOR('',#320,31.7542648054294);
#38=VECTOR('',#323,6.99999999999999);
#39=VECTOR('',#324,31.7542648054294);
#40=VECTOR('',#325,6.99999999999999);
#41=VECTOR('',#328,6.99999999999999);
#42=VECTOR('',#329,31.7542648054294);
#43=VECTOR('',#332,6.99999999999999);
#44=VECTOR('',#333,31.7542648054294);
#45=VECTOR('',#346,31.7542648054294);
#46=VECTOR('',#347,31.7542648054294);
#47=VECTOR('',#348,31.7542648054294);
#48=VECTOR('',#351,6.99999999999999);
#49=VECTOR('',#354,6.99999999999999);
#50=PLANE('',#274);
#51=PLANE('',#275);
#52=PLANE('',#276);
#53=PLANE('',#277);
#54=PLANE('',#278);
#55=PLANE('',#284);
#56=PLANE('',#285);
#57=PLANE('',#286);
#58=PLANE('',#287);
#59=PLANE('',#288);
#60=CONICAL_SURFACE('',#270,23.65,45.);
#61=CYLINDRICAL_SURFACE('',#267,20.4);
#62=CYLINDRICAL_SURFACE('',#273,23.9);
#63=CYLINDRICAL_SURFACE('',#282,25.);
#64=FACE_BOUND('',#91,.T.);
#65=FACE_BOUND('',#93,.T.);
#66=FACE_BOUND('',#95,.T.);
#67=FACE_BOUND('',#97,.T.);
#68=FACE_BOUND('',#99,.T.);
#69=FACE_BOUND('',#101,.T.);
#70=FACE_BOUND('',#106,.T.);
#71=FACE_BOUND('',#108,.T.);
#72=FACE_BOUND('',#110,.T.);
#73=FACE_BOUND('',#115,.T.);
#74=FACE_OUTER_BOUND('',#90,.T.);
#75=FACE_OUTER_BOUND('',#92,.T.);
#76=FACE_OUTER_BOUND('',#94,.T.);
#77=FACE_OUTER_BOUND('',#96,.T.);
#78=FACE_OUTER_BOUND('',#98,.T.);
#79=FACE_OUTER_BOUND('',#100,.T.);
#80=FACE_OUTER_BOUND('',#102,.T.);
#81=FACE_OUTER_BOUND('',#103,.T.);
#82=FACE_OUTER_BOUND('',#104,.T.);
#83=FACE_OUTER_BOUND('',#105,.T.);
#84=FACE_OUTER_BOUND('',#107,.T.);
#85=FACE_OUTER_BOUND('',#109,.T.);
#86=FACE_OUTER_BOUND('',#111,.T.);
#87=FACE_OUTER_BOUND('',#112,.T.);
#88=FACE_OUTER_BOUND('',#113,.T.);
#89=FACE_OUTER_BOUND('',#114,.T.);
#90=EDGE_LOOP('',(#173));
#91=EDGE_LOOP('',(#174));
#92=EDGE_LOOP('',(#175));
#93=EDGE_LOOP('',(#176));
#94=EDGE_LOOP('',(#177));
#95=EDGE_LOOP('',(#178));
#96=EDGE_LOOP('',(#179));
#97=EDGE_LOOP('',(#180));
#98=EDGE_LOOP('',(#181));
#99=EDGE_LOOP('',(#182));
#100=EDGE_LOOP('',(#183,#184,#185,#186,#187,#188));
#101=EDGE_LOOP('',(#189));
#102=EDGE_LOOP('',(#190,#191,#192,#193));
#103=EDGE_LOOP('',(#194,#195,#196,#197));
#104=EDGE_LOOP('',(#198,#199,#200,#201));
#105=EDGE_LOOP('',(#202));
#106=EDGE_LOOP('',(#203));
#107=EDGE_LOOP('',(#204));
#108=EDGE_LOOP('',(#205));
#109=EDGE_LOOP('',(#206,#207,#208,#209,#210,#211));
#110=EDGE_LOOP('',(#212));
#111=EDGE_LOOP('',(#213,#214,#215,#216));
#112=EDGE_LOOP('',(#217,#218,#219,#220));
#113=EDGE_LOOP('',(#221,#222,#223,#224));
#114=EDGE_LOOP('',(#225));
#115=EDGE_LOOP('',(#226));
#116=CIRCLE('',#265,23.9);
#117=CIRCLE('',#266,23.9);
#118=CIRCLE('',#268,20.4);
#119=CIRCLE('',#269,20.4);
#120=CIRCLE('',#271,23.9);
#121=CIRCLE('',#272,23.4);
#122=CIRCLE('',#280,25.5);
#123=CIRCLE('',#281,25.);
#124=CIRCLE('',#283,25.);
#125=VERTEX_POINT('',#361);
#126=VERTEX_POINT('',#363);
#127=VERTEX_POINT('',#366);
#128=VERTEX_POINT('',#368);
#129=VERTEX_POINT('',#371);
#130=VERTEX_POINT('',#373);
#131=VERTEX_POINT('',#378);
#132=VERTEX_POINT('',#379);
#133=VERTEX_POINT('',#381);
#134=VERTEX_POINT('',#383);
#135=VERTEX_POINT('',#385);
#136=VERTEX_POINT('',#387);
#137=VERTEX_POINT('',#391);
#138=VERTEX_POINT('',#393);
#139=VERTEX_POINT('',#397);
#140=VERTEX_POINT('',#401);
#141=VERTEX_POINT('',#405);
#142=VERTEX_POINT('',#407);
#143=VERTEX_POINT('',#410);
#144=VERTEX_POINT('',#413);
#145=VERTEX_POINT('',#415);
#146=EDGE_CURVE('',#125,#125,#116,.T.);
#147=EDGE_CURVE('',#126,#126,#117,.T.);
#148=EDGE_CURVE('',#127,#127,#118,.T.);
#149=EDGE_CURVE('',#128,#128,#119,.T.);
#150=EDGE_CURVE('',#129,#129,#120,.T.);
#151=EDGE_CURVE('',#130,#130,#121,.T.);
#152=EDGE_CURVE('',#131,#132,#14,.T.);
#153=EDGE_CURVE('',#133,#131,#15,.T.);
#154=EDGE_CURVE('',#134,#133,#16,.T.);
#155=EDGE_CURVE('',#135,#134,#17,.T.);
#156=EDGE_CURVE('',#136,#135,#18,.T.);
#157=EDGE_CURVE('',#132,#136,#19,.T.);
#158=EDGE_CURVE('',#137,#131,#20,.T.);
#159=EDGE_CURVE('',#137,#138,#21,.T.);
#160=EDGE_CURVE('',#138,#133,#22,.T.);
#161=EDGE_CURVE('',#132,#139,#23,.T.);
#162=EDGE_CURVE('',#139,#137,#24,.T.);
#163=EDGE_CURVE('',#140,#136,#25,.T.);
#164=EDGE_CURVE('',#140,#139,#26,.T.);
#165=EDGE_CURVE('',#141,#141,#122,.T.);
#166=EDGE_CURVE('',#142,#142,#123,.T.);
#167=EDGE_CURVE('',#143,#143,#124,.T.);
#168=EDGE_CURVE('',#144,#140,#27,.T.);
#169=EDGE_CURVE('',#145,#144,#28,.T.);
#170=EDGE_CURVE('',#138,#145,#29,.T.);
#171=EDGE_CURVE('',#145,#134,#30,.T.);
#172=EDGE_CURVE('',#144,#135,#31,.T.);
#173=ORIENTED_EDGE('',*,*,#146,.F.);
#174=ORIENTED_EDGE('',*,*,#147,.T.);
#175=ORIENTED_EDGE('',*,*,#148,.F.);
#176=ORIENTED_EDGE('',*,*,#149,.F.);
#177=ORIENTED_EDGE('',*,*,#150,.T.);
#178=ORIENTED_EDGE('',*,*,#151,.T.);
#179=ORIENTED_EDGE('',*,*,#146,.T.);
#180=ORIENTED_EDGE('',*,*,#150,.F.);
#181=ORIENTED_EDGE('',*,*,#151,.F.);
#182=ORIENTED_EDGE('',*,*,#148,.T.);
#183=ORIENTED_EDGE('',*,*,#152,.F.);
#184=ORIENTED_EDGE('',*,*,#153,.F.);
#185=ORIENTED_EDGE('',*,*,#154,.F.);
#186=ORIENTED_EDGE('',*,*,#155,.F.);
#187=ORIENTED_EDGE('',*,*,#156,.F.);
#188=ORIENTED_EDGE('',*,*,#157,.F.);
#189=ORIENTED_EDGE('',*,*,#147,.F.);
#190=ORIENTED_EDGE('',*,*,#153,.T.);
#191=ORIENTED_EDGE('',*,*,#158,.F.);
#192=ORIENTED_EDGE('',*,*,#159,.T.);
#193=ORIENTED_EDGE('',*,*,#160,.T.);
#194=ORIENTED_EDGE('',*,*,#152,.T.);
#195=ORIENTED_EDGE('',*,*,#161,.T.);
#196=ORIENTED_EDGE('',*,*,#162,.T.);
#197=ORIENTED_EDGE('',*,*,#158,.T.);
#198=ORIENTED_EDGE('',*,*,#157,.T.);
#199=ORIENTED_EDGE('',*,*,#163,.F.);
#200=ORIENTED_EDGE('',*,*,#164,.T.);
#201=ORIENTED_EDGE('',*,*,#161,.F.);
#202=ORIENTED_EDGE('',*,*,#165,.T.);
#203=ORIENTED_EDGE('',*,*,#166,.T.);
#204=ORIENTED_EDGE('',*,*,#167,.F.);
#205=ORIENTED_EDGE('',*,*,#166,.F.);
#206=ORIENTED_EDGE('',*,*,#162,.F.);
#207=ORIENTED_EDGE('',*,*,#164,.F.);
#208=ORIENTED_EDGE('',*,*,#168,.F.);
#209=ORIENTED_EDGE('',*,*,#169,.F.);
#210=ORIENTED_EDGE('',*,*,#170,.F.);
#211=ORIENTED_EDGE('',*,*,#159,.F.);
#212=ORIENTED_EDGE('',*,*,#165,.F.);
#213=ORIENTED_EDGE('',*,*,#154,.T.);
#214=ORIENTED_EDGE('',*,*,#160,.F.);
#215=ORIENTED_EDGE('',*,*,#170,.T.);
#216=ORIENTED_EDGE('',*,*,#171,.T.);
#217=ORIENTED_EDGE('',*,*,#155,.T.);
#218=ORIENTED_EDGE('',*,*,#171,.F.);
#219=ORIENTED_EDGE('',*,*,#169,.T.);
#220=ORIENTED_EDGE('',*,*,#172,.T.);
#221=ORIENTED_EDGE('',*,*,#156,.T.);
#222=ORIENTED_EDGE('',*,*,#172,.F.);
#223=ORIENTED_EDGE('',*,*,#168,.T.);
#224=ORIENTED_EDGE('',*,*,#163,.T.);
#225=ORIENTED_EDGE('',*,*,#167,.T.);
#226=ORIENTED_EDGE('',*,*,#149,.T.);
#227=TOROIDAL_SURFACE('',#264,23.9,1.48);
#228=TOROIDAL_SURFACE('',#279,25.5,0.5);
#229=STYLED_ITEM('',(#445),#246);
#230=STYLED_ITEM('',(#445),#247);
#231=STYLED_ITEM('',(#445),#248);
#232=STYLED_ITEM('',(#445),#249);
#233=STYLED_ITEM('',(#445),#250);
#234=STYLED_ITEM('',(#445),#251);
#235=STYLED_ITEM('',(#445),#252);
#236=STYLED_ITEM('',(#445),#253);
#237=STYLED_ITEM('',(#445),#254);
#238=STYLED_ITEM('',(#445),#255);
#239=STYLED_ITEM('',(#445),#256);
#240=STYLED_ITEM('',(#445),#257);
#241=STYLED_ITEM('',(#445),#258);
#242=STYLED_ITEM('',(#445),#259);
#243=STYLED_ITEM('',(#445),#260);
#244=STYLED_ITEM('',(#445),#261);
#245=STYLED_ITEM('',(#445),#13);
#246=ADVANCED_FACE('',(#74,#64),#227,.F.);
#247=ADVANCED_FACE('',(#75,#65),#61,.F.);
#248=ADVANCED_FACE('',(#76,#66),#60,.T.);
#249=ADVANCED_FACE('',(#77,#67),#62,.T.);
#250=ADVANCED_FACE('',(#78,#68),#50,.F.);
#251=ADVANCED_FACE('',(#79,#69),#51,.F.);
#252=ADVANCED_FACE('',(#80),#52,.T.);
#253=ADVANCED_FACE('',(#81),#53,.T.);
#254=ADVANCED_FACE('',(#82),#54,.T.);
#255=ADVANCED_FACE('',(#83,#70),#228,.F.);
#256=ADVANCED_FACE('',(#84,#71),#63,.T.);
#257=ADVANCED_FACE('',(#85,#72),#55,.T.);
#258=ADVANCED_FACE('',(#86),#56,.T.);
#259=ADVANCED_FACE('',(#87),#57,.T.);
#260=ADVANCED_FACE('',(#88),#58,.T.);
#261=ADVANCED_FACE('',(#89,#73),#59,.T.);
#262=CLOSED_SHELL('',(#246,#247,#248,#249,#250,#251,#252,#253,#254,#255,
#256,#257,#258,#259,#260,#261));
#263=AXIS2_PLACEMENT_3D('placement',#359,#289,#290);
#264=AXIS2_PLACEMENT_3D('',#360,#291,#292);
#265=AXIS2_PLACEMENT_3D('',#362,#293,#294);
#266=AXIS2_PLACEMENT_3D('',#364,#295,#296);
#267=AXIS2_PLACEMENT_3D('',#365,#297,#298);
#268=AXIS2_PLACEMENT_3D('',#367,#299,#300);
#269=AXIS2_PLACEMENT_3D('',#369,#301,#302);
#270=AXIS2_PLACEMENT_3D('',#370,#303,#304);
#271=AXIS2_PLACEMENT_3D('',#372,#305,#306);
#272=AXIS2_PLACEMENT_3D('',#374,#307,#308);
#273=AXIS2_PLACEMENT_3D('',#375,#309,#310);
#274=AXIS2_PLACEMENT_3D('',#376,#311,#312);
#275=AXIS2_PLACEMENT_3D('',#377,#313,#314);
#276=AXIS2_PLACEMENT_3D('',#390,#321,#322);
#277=AXIS2_PLACEMENT_3D('',#396,#326,#327);
#278=AXIS2_PLACEMENT_3D('',#400,#330,#331);
#279=AXIS2_PLACEMENT_3D('',#404,#334,#335);
#280=AXIS2_PLACEMENT_3D('',#406,#336,#337);
#281=AXIS2_PLACEMENT_3D('',#408,#338,#339);
#282=AXIS2_PLACEMENT_3D('',#409,#340,#341);
#283=AXIS2_PLACEMENT_3D('',#411,#342,#343);
#284=AXIS2_PLACEMENT_3D('',#412,#344,#345);
#285=AXIS2_PLACEMENT_3D('',#418,#349,#350);
#286=AXIS2_PLACEMENT_3D('',#420,#352,#353);
#287=AXIS2_PLACEMENT_3D('',#422,#355,#356);
#288=AXIS2_PLACEMENT_3D('',#423,#357,#358);
#289=DIRECTION('axis',(0.,0.,1.));
#290=DIRECTION('refdir',(1.,0.,0.));
#291=DIRECTION('center_axis',(0.,0.,-1.));
#292=DIRECTION('ref_axis',(-1.,0.,0.));
#293=DIRECTION('center_axis',(0.,0.,-1.));
#294=DIRECTION('ref_axis',(1.,0.,0.));
#295=DIRECTION('center_axis',(2.49849546860715E-32,-4.37236707006252E-32,
-1.));
#296=DIRECTION('ref_axis',(1.,0.,0.));
#297=DIRECTION('center_axis',(0.,0.,-1.));
#298=DIRECTION('ref_axis',(-1.,0.,0.));
#299=DIRECTION('center_axis',(0.,0.,1.));
#300=DIRECTION('ref_axis',(-1.,0.,0.));
#301=DIRECTION('center_axis',(0.,0.,-1.));
#302=DIRECTION('ref_axis',(-1.,0.,0.));
#303=DIRECTION('center_axis',(0.,0.,1.));
#304=DIRECTION('ref_axis',(1.,0.,0.));
#305=DIRECTION('center_axis',(0.,0.,-1.));
#306=DIRECTION('ref_axis',(1.,0.,0.));
#307=DIRECTION('center_axis',(0.,0.,1.));
#308=DIRECTION('ref_axis',(1.,0.,0.));
#309=DIRECTION('center_axis',(0.,0.,1.));
#310=DIRECTION('ref_axis',(1.,0.,0.));
#311=DIRECTION('center_axis',(0.,0.,1.));
#312=DIRECTION('ref_axis',(1.,0.,0.));
#313=DIRECTION('center_axis',(-2.49849546860715E-32,4.37236707006252E-32,
1.));
#314=DIRECTION('ref_axis',(1.,0.,0.));
#315=DIRECTION('',(0.866025403784439,-0.5,4.34994408208536E-32));
#316=DIRECTION('',(0.,-1.,4.37236707006252E-32));
#317=DIRECTION('',(-0.866025403784439,-0.5,2.24229879771586E-34));
#318=DIRECTION('',(-0.866025403784439,0.5,-4.34994408208536E-32));
#319=DIRECTION('',(4.19555495210959E-16,1.,-4.37236707006252E-32));
#320=DIRECTION('',(0.866025403784439,0.5,-2.24229879771583E-34));
#321=DIRECTION('center_axis',(-1.,0.,0.));
#322=DIRECTION('ref_axis',(0.,0.,1.));
#323=DIRECTION('',(0.,0.,-1.));
#324=DIRECTION('',(0.,1.,1.49909728116429E-31));
#325=DIRECTION('',(0.,0.,-1.));
#326=DIRECTION('center_axis',(-0.5,-0.866025403784439,0.));
#327=DIRECTION('ref_axis',(0.,0.,1.));
#328=DIRECTION('',(0.,0.,1.));
#329=DIRECTION('',(-0.866025403784439,0.5,1.64209986624196E-31));
#330=DIRECTION('center_axis',(0.5,-0.866025403784439,0.));
#331=DIRECTION('ref_axis',(0.,0.,-1.));
#332=DIRECTION('',(0.,0.,-1.));
#333=DIRECTION('',(-0.866025403784439,-0.5,1.43002585077671E-32));
#334=DIRECTION('center_axis',(1.03062938080045E-31,-1.49909728116429E-31,
1.));
#335=DIRECTION('ref_axis',(1.,0.,0.));
#336=DIRECTION('center_axis',(1.03062938080045E-31,-1.49909728116429E-31,
1.));
#337=DIRECTION('ref_axis',(-1.,-2.99819456232857E-33,1.03062938080045E-31));
#338=DIRECTION('center_axis',(-1.03062938080045E-31,1.49909728116429E-31,
-1.));
#339=DIRECTION('ref_axis',(-1.,-2.99819456232857E-33,0.));
#340=DIRECTION('center_axis',(0.,0.,-1.));
#341=DIRECTION('ref_axis',(-1.,0.,0.));
#342=DIRECTION('center_axis',(0.,0.,1.));
#343=DIRECTION('ref_axis',(-1.,0.,0.));
#344=DIRECTION('center_axis',(1.03062938080045E-31,-1.49909728116429E-31,
1.));
#345=DIRECTION('ref_axis',(1.,0.,0.));
#346=DIRECTION('',(-4.19555495210959E-16,-1.,-1.49909728116429E-31));
#347=DIRECTION('',(0.866025403784439,-0.5,-1.64209986624196E-31));
#348=DIRECTION('',(0.866025403784439,0.5,-1.43002585077671E-32));
#349=DIRECTION('center_axis',(-0.5,0.866025403784439,0.));
#350=DIRECTION('ref_axis',(0.,0.,1.));
#351=DIRECTION('',(0.,0.,-1.));
#352=DIRECTION('center_axis',(0.5,0.866025403784439,0.));
#353=DIRECTION('ref_axis',(0.,0.,-1.));
#354=DIRECTION('',(0.,0.,-1.));
#355=DIRECTION('center_axis',(1.,-4.19555495210959E-16,0.));
#356=DIRECTION('ref_axis',(0.,0.,-1.));
#357=DIRECTION('center_axis',(0.,0.,1.));
#358=DIRECTION('ref_axis',(1.,0.,0.));
#359=CARTESIAN_POINT('',(0.,0.,0.));
#360=CARTESIAN_POINT('Origin',(0.,0.,-22.48));
#361=CARTESIAN_POINT('',(-23.9,2.92690584996217E-15,-23.96));
#362=CARTESIAN_POINT('Origin',(0.,0.,-23.96));
#363=CARTESIAN_POINT('',(-23.9,2.92690584996217E-15,-21.));
#364=CARTESIAN_POINT('Origin',(0.,0.,-21.));
#365=CARTESIAN_POINT('Origin',(0.,0.,41.));
#366=CARTESIAN_POINT('',(20.4,2.4982794702606E-15,-41.));
#367=CARTESIAN_POINT('Origin',(0.,0.,-41.));
#368=CARTESIAN_POINT('',(20.4,2.4982794702606E-15,41.));
#369=CARTESIAN_POINT('Origin',(0.,0.,41.));
#370=CARTESIAN_POINT('Origin',(0.,0.,-40.75));
#371=CARTESIAN_POINT('',(-23.9,2.92690584996217E-15,-40.5));
#372=CARTESIAN_POINT('Origin',(0.,0.,-40.5));
#373=CARTESIAN_POINT('',(-23.4,-2.86567351000481E-15,-41.));
#374=CARTESIAN_POINT('Origin',(0.,0.,-41.));
#375=CARTESIAN_POINT('Origin',(0.,0.,-41.));
#376=CARTESIAN_POINT('Origin',(-2.22044604925031E-15,-1.11022302462516E-15,
-41.));
#377=CARTESIAN_POINT('Origin',(-1.94289029309402E-15,-1.11022302462516E-15,
-21.));
#378=CARTESIAN_POINT('',(-27.5,-15.8771324027147,-21.));
#379=CARTESIAN_POINT('',(-5.82867087928207E-15,-31.7542648054294,-21.));
#380=CARTESIAN_POINT('',(-6.87500000000001,-27.7849817047507,-21.));
#381=CARTESIAN_POINT('',(-27.5,15.8771324027147,-21.));
#382=CARTESIAN_POINT('',(-27.5,-7.93856620135735,-21.));
#383=CARTESIAN_POINT('',(-4.16333634234434E-15,31.7542648054294,-21.));
#384=CARTESIAN_POINT('',(-20.625,19.8464155033934,-21.));
#385=CARTESIAN_POINT('',(27.5,15.8771324027147,-21.));
#386=CARTESIAN_POINT('',(6.875,27.7849817047507,-21.));
#387=CARTESIAN_POINT('',(27.5,-15.8771324027147,-21.));
#388=CARTESIAN_POINT('',(27.5,7.93856620135734,-21.));
#389=CARTESIAN_POINT('',(20.625,-19.8464155033934,-21.));
#390=CARTESIAN_POINT('Origin',(-27.5,-15.8771324027147,0.));
#391=CARTESIAN_POINT('',(-27.5,-15.8771324027147,-14.));
#392=CARTESIAN_POINT('',(-27.5,-15.8771324027147,0.));
#393=CARTESIAN_POINT('',(-27.5,15.8771324027147,-14.));
#394=CARTESIAN_POINT('',(-27.5,-7.93856620135735,-14.));
#395=CARTESIAN_POINT('',(-27.5,15.8771324027147,0.));
#396=CARTESIAN_POINT('Origin',(-5.82867087928207E-15,-31.7542648054294,
0.));
#397=CARTESIAN_POINT('',(-5.82867087928207E-15,-31.7542648054294,-14.));
#398=CARTESIAN_POINT('',(-5.82867087928207E-15,-31.7542648054294,0.));
#399=CARTESIAN_POINT('',(-6.87500000000001,-27.7849817047507,-14.));
#400=CARTESIAN_POINT('Origin',(27.5,-15.8771324027147,0.));
#401=CARTESIAN_POINT('',(27.5,-15.8771324027147,-14.));
#402=CARTESIAN_POINT('',(27.5,-15.8771324027147,0.));
#403=CARTESIAN_POINT('',(20.625,-19.8464155033934,-14.));
#404=CARTESIAN_POINT('Origin',(0.,0.,-13.5));
#405=CARTESIAN_POINT('',(25.5,3.12284933782575E-15,-14.));
#406=CARTESIAN_POINT('Origin',(-5.15314690400223E-32,7.49548640582143E-32,
-14.));
#407=CARTESIAN_POINT('',(25.,-3.06161699786838E-15,-13.5));
#408=CARTESIAN_POINT('Origin',(0.,0.,-13.5));
#409=CARTESIAN_POINT('Origin',(0.,0.,41.));
#410=CARTESIAN_POINT('',(25.,3.06161699786838E-15,41.));
#411=CARTESIAN_POINT('Origin',(0.,0.,41.));
#412=CARTESIAN_POINT('Origin',(-1.11022302462516E-15,0.,-14.));
#413=CARTESIAN_POINT('',(27.5,15.8771324027147,-14.));
#414=CARTESIAN_POINT('',(27.5,7.93856620135734,-14.));
#415=CARTESIAN_POINT('',(-4.16333634234434E-15,31.7542648054294,-14.));
#416=CARTESIAN_POINT('',(6.875,27.7849817047507,-14.));
#417=CARTESIAN_POINT('',(-20.625,19.8464155033934,-14.));
#418=CARTESIAN_POINT('Origin',(-27.5,15.8771324027147,0.));
#419=CARTESIAN_POINT('',(-4.16333634234434E-15,31.7542648054294,0.));
#420=CARTESIAN_POINT('Origin',(-4.16333634234434E-15,31.7542648054294,0.));
#421=CARTESIAN_POINT('',(27.5,15.8771324027147,0.));
#422=CARTESIAN_POINT('Origin',(27.5,15.8771324027147,0.));
#423=CARTESIAN_POINT('Origin',(-1.66533453693773E-15,-2.85966536645874E-16,
41.));
#424=UNCERTAINTY_MEASURE_WITH_UNIT(LENGTH_MEASURE(0.01),#428,
'DISTANCE_ACCURACY_VALUE',
'Maximum model space distance between geometric entities at asserted c
onnectivities');
#425=UNCERTAINTY_MEASURE_WITH_UNIT(LENGTH_MEASURE(1.E-6),#428,
'DISTANCE_ACCURACY_VALUE',
'Maximum model space distance between geometric entities at asserted c
onnectivities');
#426=(
GEOMETRIC_REPRESENTATION_CONTEXT(3)
GLOBAL_UNCERTAINTY_ASSIGNED_CONTEXT((#424))
GLOBAL_UNIT_ASSIGNED_CONTEXT((#428,#431,#429))
REPRESENTATION_CONTEXT('','3D')
);
#427=(
GEOMETRIC_REPRESENTATION_CONTEXT(3)
GLOBAL_UNCERTAINTY_ASSIGNED_CONTEXT((#425))
GLOBAL_UNIT_ASSIGNED_CONTEXT((#428,#431,#429))
REPRESENTATION_CONTEXT('','3D')
);
#428=(
LENGTH_UNIT()
NAMED_UNIT(*)
SI_UNIT(.MILLI.,.METRE.)
);
#429=(
NAMED_UNIT(*)
SI_UNIT($,.STERADIAN.)
SOLID_ANGLE_UNIT()
);
#430=DIMENSIONAL_EXPONENTS(0.,0.,0.,0.,0.,0.,0.);
#431=(
CONVERSION_BASED_UNIT('degree',#433)
NAMED_UNIT(#430)
PLANE_ANGLE_UNIT()
);
#432=(
NAMED_UNIT(*)
PLANE_ANGLE_UNIT()
SI_UNIT($,.RADIAN.)
);
#433=PLANE_ANGLE_MEASURE_WITH_UNIT(PLANE_ANGLE_MEASURE(0.01745329252),#432);
#434=SHAPE_DEFINITION_REPRESENTATION(#435,#436);
#435=PRODUCT_DEFINITION_SHAPE('',$,#438);
#436=SHAPE_REPRESENTATION('',(#263),#426);
#437=PRODUCT_DEFINITION_CONTEXT('part definition',#442,'design');
#438=PRODUCT_DEFINITION(
'20000017_PE0100------AD---LSAG-FG-R---SW09500----_50_SDR_11',
'20000017_PE0100------AD---LSAG-FG-R---SW09500----_50_SDR_11',#439,#437);
#439=PRODUCT_DEFINITION_FORMATION('',$,#444);
#440=PRODUCT_RELATED_PRODUCT_CATEGORY(
'20000017_PE0100------AD---LSAG-FG-R---SW09500----_50_SDR_11',
'20000017_PE0100------AD---LSAG-FG-R---SW09500----_50_SDR_11',(#444));
#441=APPLICATION_PROTOCOL_DEFINITION('international standard',
'automotive_design',2009,#442);
#442=APPLICATION_CONTEXT(
'Core Data for Automotive Mechanical Design Process');
#443=PRODUCT_CONTEXT('part definition',#442,'mechanical');
#444=PRODUCT(
'20000017_PE0100------AD---LSAG-FG-R---SW09500----_50_SDR_11',
'20000017_PE0100------AD---LSAG-FG-R---SW09500----_50_SDR_11',$,(#443));
#445=PRESENTATION_STYLE_ASSIGNMENT((#446));
#446=SURFACE_STYLE_USAGE(.BOTH.,#447);
#447=SURFACE_SIDE_STYLE($,(#448));
#448=SURFACE_STYLE_FILL_AREA(#449);
#449=FILL_AREA_STYLE($,(#450));
#450=FILL_AREA_STYLE_COLOUR($,#451);
#451=COLOUR_RGB('',0.501960784313725,0.501960784313725,0.501960784313725);
ENDSEC;
END-ISO-10303-21;
