ISO-10303-21;
HEADER;
/* Generated by software containing ST-Developer
 * from STEP Tools, Inc. (www.steptools.com) 
 */
/* OPTION: using custom renumber hook */

FILE_DESCRIPTION(
/* description */ ('STEP AP203'),
/* implementation_level */ '2;1');

FILE_NAME(
/* name */ '30065115021(architecture400)',
/* time_stamp */ '2022-06-20T12:55:10+02:00',
/* author */ ('License CC BY-ND 4.0'),
/* organization */ ('CADENAS'),
/* preprocessor_version */ 'ST-DEVELOPER v18.102',
/* originating_system */ 'PARTsolutions',
/* authorisation */ '  ');

FILE_SCHEMA (('CONFIG_CONTROL_DESIGN'));
ENDSEC;

DATA;
#10=PROPERTY_DEFINITION_REPRESENTATION(#14,#12);
#11=PROPERTY_DEFINITION_REPRESENTATION(#15,#13);
#12=REPRESENTATION('',(#16),#397);
#13=REPRESENTATION('',(#17),#397);
#14=PROPERTY_DEFINITION('pmi validation property','',#402);
#15=PROPERTY_DEFINITION('pmi validation property','',#402);
#16=VALUE_REPRESENTATION_ITEM('number of annotations',COUNT_MEASURE(0.));
#17=VALUE_REPRESENTATION_ITEM('number of views',COUNT_MEASURE(0.));
#18=SHAPE_REPRESENTATION_RELATIONSHIP('','',#183,#19);
#19=ADVANCED_BREP_SHAPE_REPRESENTATION('',(#181),#397);
#20=CONICAL_SURFACE('',#195,55.,0.785398163397456);
#21=CONICAL_SURFACE('',#196,57.65,0.785398163397453);
#22=CONICAL_SURFACE('',#208,25.,0.785398163397448);
#23=PLANE('',#191);
#24=PLANE('',#200);
#25=PLANE('',#203);
#26=B_SPLINE_CURVE_WITH_KNOTS('',3,(#268,#269,#270,#271,#272,#273,#274,
#275,#276,#277,#278,#279,#280,#281,#282,#283,#284,#285,#286,#287,#288,#289,
#290,#291,#292,#293,#294,#295,#296,#297,#298,#299,#300,#301,#302,#303,#304,
#305,#306,#307,#308,#309,#310,#311,#312,#313,#314),.UNSPECIFIED.,.T.,.F.,
(1,1,1,1,1,1,1,1,1,1,1,1,1,1,1,1,1,1,1,1,1,1,1,1,1,1,1,1,1,1,1,1,1,1,1,
1,1,1,1,1,1,1,1,1,1,1,1,1,1,1,1),(-0.00870764070823213,-0.00435382035411605,
-0.00217691017705804,0.,0.00435382035411607,0.00870764070823213,0.0130614610623482,
0.0174152814164643,0.0195921915935223,0.0217691017705803,0.0261229221246964,
0.0304767424788125,0.0348305628329285,0.0391843831870446,0.0413612933641026,
0.0435382035411607,0.0478920238952767,0.0522458442493928,0.0565996646035089,
0.0587765747805669,0.0609534849576249,0.063130395134683,0.065307305311741,
0.067484215488799,0.0696611256658571,0.0740149460199731,0.0783687663740892,
0.0805456765511472,0.0827225867282053,0.0848994969052633,0.0870764070823213,
0.0914302274364374,0.0957840477905535,0.10013786814467,0.102314778321728,
0.104491688498786,0.106668598675844,0.108845508852902,0.113199329207018,
0.117553149561134,0.12190696991525,0.124083880092308,0.126260790269366,
0.128437700446424,0.130614610623482,0.134968430977598,0.137145341154656,
0.139322251331714,0.14367607168583,0.148029892039946,0.152383712394062),
 .UNSPECIFIED.);
#27=B_SPLINE_CURVE_WITH_KNOTS('',3,(#319,#320,#321,#322,#323,#324,#325,
#326,#327,#328,#329,#330,#331,#332,#333,#334,#335,#336,#337,#338,#339,#340,
#341,#342,#343,#344,#345,#346,#347,#348,#349,#350,#351,#352,#353,#354,#355,
#356,#357,#358,#359,#360,#361,#362,#363,#364,#365),.UNSPECIFIED.,.T.,.F.,
(1,1,1,1,1,1,1,1,1,1,1,1,1,1,1,1,1,1,1,1,1,1,1,1,1,1,1,1,1,1,1,1,1,1,1,
1,1,1,1,1,1,1,1,1,1,1,1,1,1,1,1),(-0.0131245813817855,-0.0104996651054284,
-0.00524983255271422,0.,0.00524983255271421,0.0104996651054284,0.0157494976581426,
0.0209993302108569,0.023624246487214,0.0262491627635711,0.0314989953162853,
0.0341239115926424,0.0367488278689995,0.0419986604217137,0.0472484929744279,
0.049873409250785,0.0524983255271421,0.0577481580798564,0.0629979906325706,
0.0682478231852848,0.0708727394616419,0.073497655737999,0.0761225720143561,
0.0787474882907132,0.0813724045670703,0.0839973208434274,0.0892471533961416,
0.0944969859488559,0.097121902225213,0.0997468185015701,0.102371734777927,
0.104996651054284,0.110246483606998,0.115496316159713,0.120746148712427,
0.123371064988784,0.125995981265141,0.128620897541498,0.131245813817855,
0.13649564637057,0.141745478923284,0.146995311475998,0.149620227752355,
0.152245144028712,0.154870060305069,0.157494976581426,0.162744809134141,
0.167994641686855,0.173244474239569,0.178494306792283,0.183744139344998),
 .UNSPECIFIED.);
#28=ORIENTED_EDGE('',*,*,#56,.T.);
#29=ORIENTED_EDGE('',*,*,#57,.T.);
#30=ORIENTED_EDGE('',*,*,#58,.T.);
#31=ORIENTED_EDGE('',*,*,#59,.F.);
#32=ORIENTED_EDGE('',*,*,#60,.F.);
#33=ORIENTED_EDGE('',*,*,#61,.T.);
#34=ORIENTED_EDGE('',*,*,#62,.F.);
#35=ORIENTED_EDGE('',*,*,#56,.F.);
#36=ORIENTED_EDGE('',*,*,#63,.F.);
#37=ORIENTED_EDGE('',*,*,#62,.T.);
#38=ORIENTED_EDGE('',*,*,#61,.F.);
#39=ORIENTED_EDGE('',*,*,#63,.T.);
#40=ORIENTED_EDGE('',*,*,#64,.F.);
#41=ORIENTED_EDGE('',*,*,#59,.T.);
#42=ORIENTED_EDGE('',*,*,#65,.F.);
#43=ORIENTED_EDGE('',*,*,#64,.T.);
#44=ORIENTED_EDGE('',*,*,#57,.F.);
#45=ORIENTED_EDGE('',*,*,#65,.T.);
#46=ORIENTED_EDGE('',*,*,#60,.T.);
#47=ORIENTED_EDGE('',*,*,#66,.T.);
#48=ORIENTED_EDGE('',*,*,#67,.F.);
#49=ORIENTED_EDGE('',*,*,#68,.F.);
#50=ORIENTED_EDGE('',*,*,#69,.F.);
#51=ORIENTED_EDGE('',*,*,#67,.T.);
#52=ORIENTED_EDGE('',*,*,#66,.F.);
#53=ORIENTED_EDGE('',*,*,#69,.T.);
#54=ORIENTED_EDGE('',*,*,#58,.F.);
#55=ORIENTED_EDGE('',*,*,#68,.T.);
#56=EDGE_CURVE('',#70,#70,#84,.F.);
#57=EDGE_CURVE('',#71,#71,#85,.F.);
#58=EDGE_CURVE('',#72,#72,#26,.T.);
#59=EDGE_CURVE('',#73,#73,#86,.T.);
#60=EDGE_CURVE('',#74,#74,#27,.T.);
#61=EDGE_CURVE('',#75,#75,#87,.T.);
#62=EDGE_CURVE('',#76,#76,#88,.T.);
#63=EDGE_CURVE('',#77,#77,#89,.T.);
#64=EDGE_CURVE('',#78,#78,#90,.T.);
#65=EDGE_CURVE('',#79,#79,#91,.T.);
#66=EDGE_CURVE('',#80,#80,#92,.T.);
#67=EDGE_CURVE('',#81,#81,#93,.T.);
#68=EDGE_CURVE('',#82,#82,#94,.F.);
#69=EDGE_CURVE('',#83,#83,#95,.T.);
#70=VERTEX_POINT('',#265);
#71=VERTEX_POINT('',#267);
#72=VERTEX_POINT('',#315);
#73=VERTEX_POINT('',#318);
#74=VERTEX_POINT('',#366);
#75=VERTEX_POINT('',#368);
#76=VERTEX_POINT('',#371);
#77=VERTEX_POINT('',#374);
#78=VERTEX_POINT('',#378);
#79=VERTEX_POINT('',#381);
#80=VERTEX_POINT('',#385);
#81=VERTEX_POINT('',#388);
#82=VERTEX_POINT('',#390);
#83=VERTEX_POINT('',#393);
#84=CIRCLE('',#186,49.7);
#85=CIRCLE('',#187,49.7);
#86=CIRCLE('',#189,57.65);
#87=CIRCLE('',#190,57.65);
#88=CIRCLE('',#192,55.);
#89=CIRCLE('',#194,55.);
#90=CIRCLE('',#197,55.);
#91=CIRCLE('',#199,55.);
#92=CIRCLE('',#202,26.5);
#93=CIRCLE('',#204,25.);
#94=CIRCLE('',#205,22.);
#95=CIRCLE('',#207,25.);
#96=EDGE_LOOP('',(#28));
#97=EDGE_LOOP('',(#29));
#98=EDGE_LOOP('',(#30));
#99=EDGE_LOOP('',(#31));
#100=EDGE_LOOP('',(#32));
#101=EDGE_LOOP('',(#33));
#102=EDGE_LOOP('',(#34));
#103=EDGE_LOOP('',(#35));
#104=EDGE_LOOP('',(#36));
#105=EDGE_LOOP('',(#37));
#106=EDGE_LOOP('',(#38));
#107=EDGE_LOOP('',(#39));
#108=EDGE_LOOP('',(#40));
#109=EDGE_LOOP('',(#41));
#110=EDGE_LOOP('',(#42));
#111=EDGE_LOOP('',(#43));
#112=EDGE_LOOP('',(#44));
#113=EDGE_LOOP('',(#45));
#114=EDGE_LOOP('',(#46));
#115=EDGE_LOOP('',(#47));
#116=EDGE_LOOP('',(#48));
#117=EDGE_LOOP('',(#49));
#118=EDGE_LOOP('',(#50));
#119=EDGE_LOOP('',(#51));
#120=EDGE_LOOP('',(#52));
#121=EDGE_LOOP('',(#53));
#122=EDGE_LOOP('',(#54));
#123=EDGE_LOOP('',(#55));
#124=FACE_BOUND('',#96,.T.);
#125=FACE_BOUND('',#97,.T.);
#126=FACE_BOUND('',#98,.T.);
#127=FACE_BOUND('',#99,.T.);
#128=FACE_BOUND('',#100,.T.);
#129=FACE_BOUND('',#101,.T.);
#130=FACE_BOUND('',#102,.T.);
#131=FACE_BOUND('',#103,.T.);
#132=FACE_BOUND('',#104,.T.);
#133=FACE_BOUND('',#105,.T.);
#134=FACE_BOUND('',#106,.T.);
#135=FACE_BOUND('',#107,.T.);
#136=FACE_BOUND('',#108,.T.);
#137=FACE_BOUND('',#109,.T.);
#138=FACE_BOUND('',#110,.T.);
#139=FACE_BOUND('',#111,.T.);
#140=FACE_BOUND('',#112,.T.);
#141=FACE_BOUND('',#113,.T.);
#142=FACE_BOUND('',#114,.T.);
#143=FACE_BOUND('',#115,.T.);
#144=FACE_BOUND('',#116,.T.);
#145=FACE_BOUND('',#117,.T.);
#146=FACE_BOUND('',#118,.T.);
#147=FACE_BOUND('',#119,.T.);
#148=FACE_BOUND('',#120,.T.);
#149=FACE_BOUND('',#121,.T.);
#150=FACE_BOUND('',#122,.T.);
#151=FACE_BOUND('',#123,.T.);
#152=CYLINDRICAL_SURFACE('',#185,49.7);
#153=CYLINDRICAL_SURFACE('',#188,57.65);
#154=CYLINDRICAL_SURFACE('',#193,55.);
#155=CYLINDRICAL_SURFACE('',#198,55.);
#156=CYLINDRICAL_SURFACE('',#201,26.5);
#157=CYLINDRICAL_SURFACE('',#206,25.);
#158=CYLINDRICAL_SURFACE('',#209,22.);
#159=ADVANCED_FACE('',(#124,#125,#126),#152,.F.);
#160=ADVANCED_FACE('',(#127,#128,#129),#153,.T.);
#161=ADVANCED_FACE('',(#130,#131),#23,.F.);
#162=ADVANCED_FACE('',(#132,#133),#154,.T.);
#163=ADVANCED_FACE('',(#134,#135),#20,.T.);
#164=ADVANCED_FACE('',(#136,#137),#21,.T.);
#165=ADVANCED_FACE('',(#138,#139),#155,.T.);
#166=ADVANCED_FACE('',(#140,#141),#24,.F.);
#167=ADVANCED_FACE('',(#142,#143),#156,.T.);
#168=ADVANCED_FACE('',(#144,#145),#25,.F.);
#169=ADVANCED_FACE('',(#146,#147),#157,.T.);
#170=ADVANCED_FACE('',(#148,#149),#22,.T.);
#171=ADVANCED_FACE('',(#150,#151),#158,.F.);
#172=CLOSED_SHELL('',(#159,#160,#161,#162,#163,#164,#165,#166,#167,#168,
#169,#170,#171));
#173=STYLED_ITEM('',(#174),#181);
#174=PRESENTATION_STYLE_ASSIGNMENT((#175));
#175=SURFACE_STYLE_USAGE(.BOTH.,#176);
#176=SURFACE_SIDE_STYLE('',(#177));
#177=SURFACE_STYLE_FILL_AREA(#178);
#178=FILL_AREA_STYLE('',(#179));
#179=FILL_AREA_STYLE_COLOUR('',#180);
#180=COLOUR_RGB('',0.689999997615814,0.689999997615814,0.689999997615814);
#181=MANIFOLD_SOLID_BREP('30065115021(architecture400)',#172);
#182=SHAPE_DEFINITION_REPRESENTATION(#402,#183);
#183=SHAPE_REPRESENTATION('30065115021(architecture400)',(#184),#397);
#184=AXIS2_PLACEMENT_3D('',#262,#210,#211);
#185=AXIS2_PLACEMENT_3D('',#263,#212,#213);
#186=AXIS2_PLACEMENT_3D('',#264,#214,#215);
#187=AXIS2_PLACEMENT_3D('',#266,#216,#217);
#188=AXIS2_PLACEMENT_3D('',#316,#218,#219);
#189=AXIS2_PLACEMENT_3D('',#317,#220,#221);
#190=AXIS2_PLACEMENT_3D('',#367,#222,#223);
#191=AXIS2_PLACEMENT_3D('',#369,#224,#225);
#192=AXIS2_PLACEMENT_3D('',#370,#226,#227);
#193=AXIS2_PLACEMENT_3D('',#372,#228,#229);
#194=AXIS2_PLACEMENT_3D('',#373,#230,#231);
#195=AXIS2_PLACEMENT_3D('',#375,#232,#233);
#196=AXIS2_PLACEMENT_3D('',#376,#234,#235);
#197=AXIS2_PLACEMENT_3D('',#377,#236,#237);
#198=AXIS2_PLACEMENT_3D('',#379,#238,#239);
#199=AXIS2_PLACEMENT_3D('',#380,#240,#241);
#200=AXIS2_PLACEMENT_3D('',#382,#242,#243);
#201=AXIS2_PLACEMENT_3D('',#383,#244,#245);
#202=AXIS2_PLACEMENT_3D('',#384,#246,#247);
#203=AXIS2_PLACEMENT_3D('',#386,#248,#249);
#204=AXIS2_PLACEMENT_3D('',#387,#250,#251);
#205=AXIS2_PLACEMENT_3D('',#389,#252,#253);
#206=AXIS2_PLACEMENT_3D('',#391,#254,#255);
#207=AXIS2_PLACEMENT_3D('',#392,#256,#257);
#208=AXIS2_PLACEMENT_3D('',#394,#258,#259);
#209=AXIS2_PLACEMENT_3D('',#395,#260,#261);
#210=DIRECTION('',(0.,0.,1.));
#211=DIRECTION('',(1.,0.,0.));
#212=DIRECTION('',(-1.,0.,0.));
#213=DIRECTION('',(0.,0.,1.));
#214=DIRECTION('',(1.,0.,0.));
#215=DIRECTION('',(0.,0.,-1.));
#216=DIRECTION('',(-1.,0.,0.));
#217=DIRECTION('',(0.,0.,1.));
#218=DIRECTION('',(1.,0.,0.));
#219=DIRECTION('',(0.,0.,-1.));
#220=DIRECTION('',(1.,0.,0.));
#221=DIRECTION('',(0.,0.,-1.));
#222=DIRECTION('',(1.,0.,0.));
#223=DIRECTION('',(0.,0.,-1.));
#224=DIRECTION('',(1.,0.,0.));
#225=DIRECTION('',(0.,0.,-1.));
#226=DIRECTION('',(1.,0.,0.));
#227=DIRECTION('',(0.,0.,-1.));
#228=DIRECTION('',(1.,0.,0.));
#229=DIRECTION('',(0.,0.,-1.));
#230=DIRECTION('',(1.,0.,0.));
#231=DIRECTION('',(0.,0.,-1.));
#232=DIRECTION('',(1.,0.,0.));
#233=DIRECTION('',(0.,0.,-1.));
#234=DIRECTION('',(-1.,0.,0.));
#235=DIRECTION('',(0.,0.,1.));
#236=DIRECTION('',(1.,0.,0.));
#237=DIRECTION('',(0.,0.,-1.));
#238=DIRECTION('',(1.,0.,0.));
#239=DIRECTION('',(0.,0.,-1.));
#240=DIRECTION('',(1.,0.,0.));
#241=DIRECTION('',(0.,0.,-1.));
#242=DIRECTION('',(-1.,0.,0.));
#243=DIRECTION('',(0.,0.,1.));
#244=DIRECTION('',(0.,0.,-1.));
#245=DIRECTION('',(-1.,0.,0.));
#246=DIRECTION('',(0.,0.,-1.));
#247=DIRECTION('',(-1.,0.,0.));
#248=DIRECTION('',(0.,0.,-1.));
#249=DIRECTION('',(-1.,0.,0.));
#250=DIRECTION('',(0.,0.,-1.));
#251=DIRECTION('',(-1.,0.,0.));
#252=DIRECTION('',(0.,0.,-1.));
#253=DIRECTION('',(-1.,0.,0.));
#254=DIRECTION('',(0.,0.,-1.));
#255=DIRECTION('',(-1.,0.,0.));
#256=DIRECTION('',(0.,0.,-1.));
#257=DIRECTION('',(-1.,0.,0.));
#258=DIRECTION('',(0.,0.,-1.));
#259=DIRECTION('',(-1.,0.,0.));
#260=DIRECTION('',(0.,0.,-1.));
#261=DIRECTION('',(-1.,0.,0.));
#262=CARTESIAN_POINT('',(0.,0.,0.));
#263=CARTESIAN_POINT('',(1.,0.,0.));
#264=CARTESIAN_POINT('',(-230.,0.,0.));
#265=CARTESIAN_POINT('',(-230.,0.,-49.7));
#266=CARTESIAN_POINT('',(0.,0.,0.));
#267=CARTESIAN_POINT('',(0.,0.,49.7));
#268=CARTESIAN_POINT('',(-93.0746730394889,-2.21751636526573,49.666838917072));
#269=CARTESIAN_POINT('',(-92.9263815509764,0.747585338074872,49.7327668246524));
#270=CARTESIAN_POINT('',(-93.2892008437683,4.35931378365479,49.5709039927683));
#271=CARTESIAN_POINT('',(-94.5804440367247,8.5630228700381,49.013380277668));
#272=CARTESIAN_POINT('',(-96.6189112150577,12.3399428401416,48.1904828341766));
#273=CARTESIAN_POINT('',(-98.9053888410662,15.1153040460264,47.3658800354645));
#274=CARTESIAN_POINT('',(-100.996190226458,17.0122241431826,46.7050957237841));
#275=CARTESIAN_POINT('',(-103.302339135972,18.728151213717,46.0509508656727));
#276=CARTESIAN_POINT('',(-106.428031357498,20.414414401825,45.3257169719072));
#277=CARTESIAN_POINT('',(-110.625709619338,21.7074844039531,44.711910486258));
#278=CARTESIAN_POINT('',(-114.949155116084,22.1455506155908,44.4927779454569));
#279=CARTESIAN_POINT('',(-118.633634882522,21.7827172764224,44.6741929761903));
#280=CARTESIAN_POINT('',(-121.426310798891,21.0777180745608,45.0109616260867));
#281=CARTESIAN_POINT('',(-124.166716649763,20.0909089793304,45.4647379364372));
#282=CARTESIAN_POINT('',(-127.312106652882,18.3998485879441,46.1926035620229));
#283=CARTESIAN_POINT('',(-130.64671822988,15.660254794455,47.2037921039995));
#284=CARTESIAN_POINT('',(-132.897226521131,12.9341462506875,48.0155326398983));
#285=CARTESIAN_POINT('',(-134.395187179377,10.4590083217956,48.6000582846866));
#286=CARTESIAN_POINT('',(-135.319352897143,8.52323005525273,48.9773477965035));
#287=CARTESIAN_POINT('',(-136.054285185922,6.50260820840753,49.2875455396621));
#288=CARTESIAN_POINT('',(-136.596684811799,4.38190332101705,49.5222945104869));
#289=CARTESIAN_POINT('',(-136.924777804136,2.20885645457711,49.6666247507316));
#290=CARTESIAN_POINT('',(-137.073857356977,-0.680525028860055,49.7328365163748));
#291=CARTESIAN_POINT('',(-136.710926683361,-4.36373809284644,49.5711403992945));
#292=CARTESIAN_POINT('',(-135.654797872333,-7.81322720796194,49.1145211270815));
#293=CARTESIAN_POINT('',(-134.405926354619,-10.4392467445767,48.6043717845678));
#294=CARTESIAN_POINT('',(-133.300215430262,-12.2720871744997,48.1725158472843));
#295=CARTESIAN_POINT('',(-132.029156567063,-13.9840338571241,47.7025896512984));
#296=CARTESIAN_POINT('',(-130.097049110696,-16.1132819528134,47.0370675799733));
#297=CARTESIAN_POINT('',(-127.372382762706,-18.3591519115668,46.2084502113962));
#298=CARTESIAN_POINT('',(-123.542062770694,-20.4264690074316,45.3206431431242));
#299=CARTESIAN_POINT('',(-120.123236436216,-21.481950939175,44.8191431420763));
#300=CARTESIAN_POINT('',(-117.209834453204,-21.925927428975,44.602291737694));
#301=CARTESIAN_POINT('',(-115.027076137892,-22.035511599172,44.547963998634));
#302=CARTESIAN_POINT('',(-112.856097588937,-21.931911180383,44.5993270542551));
#303=CARTESIAN_POINT('',(-109.948350474609,-21.4995161387696,44.810688056));
#304=CARTESIAN_POINT('',(-106.489434737636,-20.4411012570302,45.3139642302501));
#305=CARTESIAN_POINT('',(-102.663478782272,-18.3832877508742,46.1988590155442));
#306=CARTESIAN_POINT('',(-99.9213759451077,-16.1308958932916,47.0310244436361));
#307=CARTESIAN_POINT('',(-97.9899039234246,-14.006847562729,47.6958176941171));
#308=CARTESIAN_POINT('',(-96.7195152678054,-12.3011746130741,48.1650210277312));
#309=CARTESIAN_POINT('',(-95.6133541004315,-10.4746706937036,48.5966573930973));
#310=CARTESIAN_POINT('',(-94.3590444580072,-7.8510523978272,49.1086775829862));
#311=CARTESIAN_POINT('',(-93.5130105019562,-5.09434057645773,49.4741704772368));
#312=CARTESIAN_POINT('',(-93.0746730394889,-2.21751636526573,49.666838917072));
#313=CARTESIAN_POINT('',(-92.9263815509764,0.747585338074872,49.7327668246524));
#314=CARTESIAN_POINT('',(-93.2892008437683,4.35931378365479,49.5709039927683));
#315=CARTESIAN_POINT('',(-93.,0.,49.7));
#316=CARTESIAN_POINT('',(0.,0.,0.));
#317=CARTESIAN_POINT('',(-54.65,0.,0.));
#318=CARTESIAN_POINT('',(-54.65,0.,-57.65));
#319=CARTESIAN_POINT('',(-141.135586980925,5.33640886462925,57.4813697404302));
#320=CARTESIAN_POINT('',(-141.678537938005,-0.0192410893863367,57.7326859303102));
#321=CARTESIAN_POINT('',(-141.150261267055,-5.25944450708389,57.4878865383291));
#322=CARTESIAN_POINT('',(-139.593513868402,-10.3209615488823,56.7896164583001));
#323=CARTESIAN_POINT('',(-137.136534738564,-14.8700192829967,55.7581354905013));
#324=CARTESIAN_POINT('',(-134.385975896373,-18.2076117055435,54.724696154882));
#325=CARTESIAN_POINT('',(-131.869661866126,-20.4905382314525,53.8950204201373));
#326=CARTESIAN_POINT('',(-129.096175476726,-22.5558386096106,53.0728552289303));
#327=CARTESIAN_POINT('',(-126.078148458324,-24.1801537010905,52.3422748926413));
#328=CARTESIAN_POINT('',(-122.823783220468,-25.3644945496667,51.7727340485442));
#329=CARTESIAN_POINT('',(-119.400047685092,-26.2350305422857,51.3373936286328));
#330=CARTESIAN_POINT('',(-115.070621023484,-26.6753825550773,51.106374693394));
#331=CARTESIAN_POINT('',(-110.623589145343,-26.2386125085311,51.3354117737438));
#332=CARTESIAN_POINT('',(-107.258192281535,-25.3887853236848,51.7607846616196));
#333=CARTESIAN_POINT('',(-103.955399274075,-24.1991694607525,52.3335906169221));
#334=CARTESIAN_POINT('',(-100.170939969356,-22.1637496009907,53.2498285686545));
#335=CARTESIAN_POINT('',(-96.1591257033708,-18.8694154371669,54.5193852502728));
#336=CARTESIAN_POINT('',(-93.4479540344846,-15.587840525047,55.537939612386));
#337=CARTESIAN_POINT('',(-91.6438927526921,-12.6097851058563,56.2703773661147));
#338=CARTESIAN_POINT('',(-90.5305859245402,-10.2811230347976,56.7429256004142));
#339=CARTESIAN_POINT('',(-89.6434775504425,-7.84727884781269,57.1320114160052));
#340=CARTESIAN_POINT('',(-88.9874481842731,-5.28657808296493,57.4269531286649));
#341=CARTESIAN_POINT('',(-88.5917678023785,-2.67181020667263,57.6077226639389));
#342=CARTESIAN_POINT('',(-88.4104887187329,0.812920013718325,57.6913216018722));
#343=CARTESIAN_POINT('',(-88.8475426790148,5.25522650030927,57.4891336474824));
#344=CARTESIAN_POINT('',(-90.1214908110505,9.41452267346716,56.916912261064));
#345=CARTESIAN_POINT('',(-91.6258487524611,12.5765114836136,56.2779087271763));
#346=CARTESIAN_POINT('',(-92.9561212391252,14.781597789643,55.7372238140586));
#347=CARTESIAN_POINT('',(-94.4878387192879,16.8446760847866,55.1474418872763));
#348=CARTESIAN_POINT('',(-96.8124704132531,19.4064695330366,54.3127782046966));
#349=CARTESIAN_POINT('',(-100.088879375877,22.1085659533591,53.2723923925633));
#350=CARTESIAN_POINT('',(-104.697765979176,24.5989646918786,52.1541607566914));
#351=CARTESIAN_POINT('',(-108.815366919367,25.8731545449881,51.5200070901719));
#352=CARTESIAN_POINT('',(-112.331043788495,26.4101021826954,51.2450956125479));
#353=CARTESIAN_POINT('',(-114.958010829735,26.5427385783165,51.1761461716092));
#354=CARTESIAN_POINT('',(-117.57730144162,26.4187315601695,51.2406147920313));
#355=CARTESIAN_POINT('',(-121.088483956589,25.8966777579409,51.5081460241531));
#356=CARTESIAN_POINT('',(-125.251840052906,24.6213525198213,52.143381236025));
#357=CARTESIAN_POINT('',(-129.855936686751,22.1465466098124,53.2567353232081));
#358=CARTESIAN_POINT('',(-133.163645000318,19.429140739582,54.3046264105807));
#359=CARTESIAN_POINT('',(-135.482420358312,16.8799675268339,55.1364661968735));
#360=CARTESIAN_POINT('',(-137.011885667558,14.8288472873062,55.7245534756905));
#361=CARTESIAN_POINT('',(-138.347091549504,12.6271769278563,56.266632377868));
#362=CARTESIAN_POINT('',(-139.859516878768,9.46327028182182,56.9085683258719));
#363=CARTESIAN_POINT('',(-141.135586980925,5.33640886462925,57.4813697404302));
#364=CARTESIAN_POINT('',(-141.678537938005,-0.0192410893863367,57.7326859303102));
#365=CARTESIAN_POINT('',(-141.150261267055,-5.25944450708389,57.4878865383291));
#366=CARTESIAN_POINT('',(-141.5,0.,57.65));
#367=CARTESIAN_POINT('',(-175.35,0.,0.));
#368=CARTESIAN_POINT('',(-175.35,0.,-57.65));
#369=CARTESIAN_POINT('',(-230.,0.,0.));
#370=CARTESIAN_POINT('',(-230.,0.,0.));
#371=CARTESIAN_POINT('',(-230.,0.,-55.));
#372=CARTESIAN_POINT('',(0.,0.,0.));
#373=CARTESIAN_POINT('',(-178.,0.,0.));
#374=CARTESIAN_POINT('',(-178.,0.,-55.));
#375=CARTESIAN_POINT('',(-178.,0.,0.));
#376=CARTESIAN_POINT('',(-54.65,0.,0.));
#377=CARTESIAN_POINT('',(-52.,0.,0.));
#378=CARTESIAN_POINT('',(-52.,0.,-55.));
#379=CARTESIAN_POINT('',(0.,0.,0.));
#380=CARTESIAN_POINT('',(0.,0.,0.));
#381=CARTESIAN_POINT('',(0.,0.,-55.));
#382=CARTESIAN_POINT('',(0.,0.,55.));
#383=CARTESIAN_POINT('',(-115.,0.,0.));
#384=CARTESIAN_POINT('',(-115.,0.,67.5));
#385=CARTESIAN_POINT('',(-141.5,0.,67.5));
#386=CARTESIAN_POINT('',(-115.,0.,105.));
#387=CARTESIAN_POINT('',(-115.,0.,105.));
#388=CARTESIAN_POINT('',(-140.,0.,105.));
#389=CARTESIAN_POINT('',(-115.,0.,105.));
#390=CARTESIAN_POINT('',(-137.,0.,105.));
#391=CARTESIAN_POINT('',(-115.,0.,0.));
#392=CARTESIAN_POINT('',(-115.,0.,69.));
#393=CARTESIAN_POINT('',(-140.,0.,69.));
#394=CARTESIAN_POINT('',(-115.,0.,69.));
#395=CARTESIAN_POINT('',(-115.,0.,106.));
#396=MECHANICAL_DESIGN_GEOMETRIC_PRESENTATION_REPRESENTATION('',(#173),
#397);
#397=(
GEOMETRIC_REPRESENTATION_CONTEXT(3)
GLOBAL_UNCERTAINTY_ASSIGNED_CONTEXT((#398))
GLOBAL_UNIT_ASSIGNED_CONTEXT((#401,#400,#399))
REPRESENTATION_CONTEXT('30065115021(architecture400)',
'TOP_LEVEL_ASSEMBLY_PART')
);
#398=UNCERTAINTY_MEASURE_WITH_UNIT(LENGTH_MEASURE(0.005),#401,
'DISTANCE_ACCURACY_VALUE','Maximum Tolerance applied to model');
#399=(
NAMED_UNIT(*)
SI_UNIT($,.STERADIAN.)
SOLID_ANGLE_UNIT()
);
#400=(
NAMED_UNIT(*)
PLANE_ANGLE_UNIT()
SI_UNIT($,.RADIAN.)
);
#401=(
LENGTH_UNIT()
NAMED_UNIT(*)
SI_UNIT(.MILLI.,.METRE.)
);
#402=PRODUCT_DEFINITION_SHAPE('','',#403);
#403=PRODUCT_DEFINITION('','',#405,#404);
#404=DESIGN_CONTEXT('',#411,'design');
#405=PRODUCT_DEFINITION_FORMATION_WITH_SPECIFIED_SOURCE('','',#407,
 .NOT_KNOWN.);
#406=PRODUCT_RELATED_PRODUCT_CATEGORY('','',(#407));
#407=PRODUCT('30065115021(architecture400)',
'30065115021(architecture400)','30065115021(architecture400)',(#409));
#408=PRODUCT_CATEGORY('','');
#409=MECHANICAL_CONTEXT('',#411,'mechanical');
#410=APPLICATION_PROTOCOL_DEFINITION('international standard',
'config_control_design',2010,#411);
#411=APPLICATION_CONTEXT(
'configuration controlled 3D designs of mechanical parts and assemblie
s');
ENDSEC;
END-ISO-10303-21;
