ISO-10303-21;
HEADER;
FILE_DESCRIPTION( ( 'STEP AP214' ), '1' );
FILE_NAME( 'p:/temp/worker_10/temp/exporttempdir_5572_886_6GOdT/format_0/70066012507(architecture400).stp', '2021-11-25T10:27:56', ( 'License CC BY-ND 4.0' ), ( 'CADENAS' ), ' ', 'PARTsolutions', ' ' );
FILE_SCHEMA( ( 'AUTOMOTIVE_DESIGN { 1 0 10303 214 1 1 1 1 }' ) );
ENDSEC;
DATA;
#1 = MECHANICAL_DESIGN_GEOMETRIC_PRESENTATION_REPRESENTATION( ' ', ( #10, #11, #12, #13, #14, #15, #16, #17, #18, #19, #20, #21, #22 ), #6 );
#2 = PRODUCT_DEFINITION_CONTEXT( '', #23, 'design' );
#3 = APPLICATION_PROTOCOL_DEFINITION( 'international standard', 'automotive_design', 2001, #23 );
#4 = PRODUCT_CATEGORY_RELATIONSHIP( 'NONE', 'NONE', #24, #25 );
#5 = SHAPE_DEFINITION_REPRESENTATION( #26, #27 );
#6 =  ( GEOMETRIC_REPRESENTATION_CONTEXT( 3 )GLOBAL_UNCERTAINTY_ASSIGNED_CONTEXT( ( #30 ) )GLOBAL_UNIT_ASSIGNED_CONTEXT( ( #32, #33, #34 ) )REPRESENTATION_CONTEXT( 'NONE', 'WORKSPACE' ) );
#10 = STYLED_ITEM( '', ( #36 ), #37 );
#11 = STYLED_ITEM( '', ( #38 ), #39 );
#12 = STYLED_ITEM( '', ( #40 ), #41 );
#13 = STYLED_ITEM( '', ( #42 ), #43 );
#14 = STYLED_ITEM( '', ( #44 ), #45 );
#15 = STYLED_ITEM( '', ( #46 ), #47 );
#16 = STYLED_ITEM( '', ( #48 ), #49 );
#17 = STYLED_ITEM( '', ( #50 ), #51 );
#18 = STYLED_ITEM( '', ( #52 ), #53 );
#19 = STYLED_ITEM( '', ( #54 ), #55 );
#20 = STYLED_ITEM( '', ( #56 ), #57 );
#21 = STYLED_ITEM( '', ( #58 ), #59 );
#22 = STYLED_ITEM( '', ( #60 ), #61 );
#23 = APPLICATION_CONTEXT( 'core data for automotive mechanical design processes' );
#24 = PRODUCT_CATEGORY( 'part', 'NONE' );
#25 = PRODUCT_RELATED_PRODUCT_CATEGORY( 'detail', ' ', ( #62 ) );
#26 = PRODUCT_DEFINITION_SHAPE( 'NONE', 'NONE', #63 );
#27 = ADVANCED_BREP_SHAPE_REPRESENTATION( '_70066012507(architecture400)', ( #64, #65 ), #6 );
#30 = UNCERTAINTY_MEASURE_WITH_UNIT( LENGTH_MEASURE( 0.00100000000000000 ), #32, '', '' );
#32 =  ( CONVERSION_BASED_UNIT( 'MILLIMETRE', #68 )LENGTH_UNIT(  )NAMED_UNIT( #71 ) );
#33 =  ( NAMED_UNIT( #73 )PLANE_ANGLE_UNIT(  )SI_UNIT( $, .RADIAN. ) );
#34 =  ( NAMED_UNIT( #73 )SI_UNIT( $, .STERADIAN. )SOLID_ANGLE_UNIT(  ) );
#36 = PRESENTATION_STYLE_ASSIGNMENT( ( #79 ) );
#37 = ADVANCED_FACE( '', ( #80, #81 ), #82, .T. );
#38 = PRESENTATION_STYLE_ASSIGNMENT( ( #83 ) );
#39 = ADVANCED_FACE( '', ( #84, #85 ), #86, .F. );
#40 = PRESENTATION_STYLE_ASSIGNMENT( ( #87 ) );
#41 = ADVANCED_FACE( '', ( #88, #89 ), #90, .F. );
#42 = PRESENTATION_STYLE_ASSIGNMENT( ( #91 ) );
#43 = ADVANCED_FACE( '', ( #92, #93 ), #94, .T. );
#44 = PRESENTATION_STYLE_ASSIGNMENT( ( #95 ) );
#45 = ADVANCED_FACE( '', ( #96, #97 ), #98, .T. );
#46 = PRESENTATION_STYLE_ASSIGNMENT( ( #99 ) );
#47 = ADVANCED_FACE( '', ( #100, #101 ), #102, .T. );
#48 = PRESENTATION_STYLE_ASSIGNMENT( ( #103 ) );
#49 = ADVANCED_FACE( '', ( #104, #105 ), #106, .T. );
#50 = PRESENTATION_STYLE_ASSIGNMENT( ( #107 ) );
#51 = ADVANCED_FACE( '', ( #108, #109 ), #110, .T. );
#52 = PRESENTATION_STYLE_ASSIGNMENT( ( #111 ) );
#53 = ADVANCED_FACE( '', ( #112, #113 ), #114, .T. );
#54 = PRESENTATION_STYLE_ASSIGNMENT( ( #115 ) );
#55 = ADVANCED_FACE( '', ( #116, #117 ), #118, .F. );
#56 = PRESENTATION_STYLE_ASSIGNMENT( ( #119 ) );
#57 = ADVANCED_FACE( '', ( #120, #121 ), #122, .F. );
#58 = PRESENTATION_STYLE_ASSIGNMENT( ( #123 ) );
#59 = ADVANCED_FACE( '', ( #124, #125, #126 ), #127, .F. );
#60 = PRESENTATION_STYLE_ASSIGNMENT( ( #128 ) );
#61 = ADVANCED_FACE( '', ( #129, #130, #131 ), #132, .T. );
#62 = PRODUCT( '_70066012507(architecture400)', '_70066012507(architecture400)', 'PART-_70066012507(architecture400)-DESC', ( #133 ) );
#63 = PRODUCT_DEFINITION( 'NONE', 'NONE', #134, #2 );
#64 = MANIFOLD_SOLID_BREP( '_70066012507(architecture400)', #135 );
#65 = AXIS2_PLACEMENT_3D( '', #136, #137, #138 );
#68 = LENGTH_MEASURE_WITH_UNIT( LENGTH_MEASURE( 1.00000000000000 ), #139 );
#71 = DIMENSIONAL_EXPONENTS( 1.00000000000000, 0.000000000000000, 0.000000000000000, 0.000000000000000, 0.000000000000000, 0.000000000000000, 0.000000000000000 );
#73 = DIMENSIONAL_EXPONENTS( 0.000000000000000, 0.000000000000000, 0.000000000000000, 0.000000000000000, 0.000000000000000, 0.000000000000000, 0.000000000000000 );
#79 = SURFACE_STYLE_USAGE( .BOTH., #140 );
#80 = FACE_OUTER_BOUND( '', #141, .T. );
#81 = FACE_OUTER_BOUND( '', #142, .T. );
#82 = CYLINDRICAL_SURFACE( '', #143, 62.5000000000000 );
#83 = SURFACE_STYLE_USAGE( .BOTH., #144 );
#84 = FACE_OUTER_BOUND( '', #145, .T. );
#85 = FACE_BOUND( '', #146, .T. );
#86 = PLANE( '', #147 );
#87 = SURFACE_STYLE_USAGE( .BOTH., #148 );
#88 = FACE_OUTER_BOUND( '', #149, .T. );
#89 = FACE_OUTER_BOUND( '', #150, .T. );
#90 = CYLINDRICAL_SURFACE( '', #151, 45.4000000000000 );
#91 = SURFACE_STYLE_USAGE( .BOTH., #152 );
#92 = FACE_OUTER_BOUND( '', #153, .T. );
#93 = FACE_OUTER_BOUND( '', #154, .T. );
#94 = CYLINDRICAL_SURFACE( '', #155, 62.5000000000000 );
#95 = SURFACE_STYLE_USAGE( .BOTH., #156 );
#96 = FACE_OUTER_BOUND( '', #157, .T. );
#97 = FACE_BOUND( '', #158, .T. );
#98 = CONICAL_SURFACE( '', #159, 62.5000000000000, 0.785398163400000 );
#99 = SURFACE_STYLE_USAGE( .BOTH., #160 );
#100 = FACE_OUTER_BOUND( '', #161, .T. );
#101 = FACE_BOUND( '', #162, .T. );
#102 = CONICAL_SURFACE( '', #163, 62.5000000000000, 0.785398163400000 );
#103 = SURFACE_STYLE_USAGE( .BOTH., #164 );
#104 = FACE_BOUND( '', #165, .T. );
#105 = FACE_OUTER_BOUND( '', #166, .T. );
#106 = CONICAL_SURFACE( '', #167, 71.0500000000000, 0.785398163400000 );
#107 = SURFACE_STYLE_USAGE( .BOTH., #168 );
#108 = FACE_OUTER_BOUND( '', #169, .T. );
#109 = FACE_OUTER_BOUND( '', #170, .T. );
#110 = CYLINDRICAL_SURFACE( '', #171, 62.5000000000000 );
#111 = SURFACE_STYLE_USAGE( .BOTH., #172 );
#112 = FACE_OUTER_BOUND( '', #173, .T. );
#113 = FACE_OUTER_BOUND( '', #174, .T. );
#114 = CYLINDRICAL_SURFACE( '', #175, 71.0500000000000 );
#115 = SURFACE_STYLE_USAGE( .BOTH., #176 );
#116 = FACE_BOUND( '', #177, .T. );
#117 = FACE_OUTER_BOUND( '', #178, .T. );
#118 = PLANE( '', #179 );
#119 = SURFACE_STYLE_USAGE( .BOTH., #180 );
#120 = FACE_OUTER_BOUND( '', #181, .T. );
#121 = FACE_BOUND( '', #182, .T. );
#122 = PLANE( '', #183 );
#123 = SURFACE_STYLE_USAGE( .BOTH., #184 );
#124 = FACE_OUTER_BOUND( '', #185, .T. );
#125 = FACE_OUTER_BOUND( '', #186, .T. );
#126 = FACE_BOUND( '', #187, .T. );
#127 = CYLINDRICAL_SURFACE( '', #188, 45.4000000000000 );
#128 = SURFACE_STYLE_USAGE( .BOTH., #189 );
#129 = FACE_OUTER_BOUND( '', #190, .T. );
#130 = FACE_BOUND( '', #191, .T. );
#131 = FACE_OUTER_BOUND( '', #192, .T. );
#132 = CYLINDRICAL_SURFACE( '', #193, 71.0500000000000 );
#133 = PRODUCT_CONTEXT( '', #23, 'mechanical' );
#134 = PRODUCT_DEFINITION_FORMATION_WITH_SPECIFIED_SOURCE( ' ', 'NONE', #62, .NOT_KNOWN. );
#135 = CLOSED_SHELL( '', ( #59, #61, #53, #47, #37, #39, #55, #43, #49, #45, #51, #57, #41 ) );
#136 = CARTESIAN_POINT( '', ( 0.000000000000000, 0.000000000000000, 0.000000000000000 ) );
#137 = DIRECTION( '', ( 0.000000000000000, 0.000000000000000, 1.00000000000000 ) );
#138 = DIRECTION( '', ( 1.00000000000000, 0.000000000000000, 0.000000000000000 ) );
#139 =  ( LENGTH_UNIT(  )NAMED_UNIT( #71 )SI_UNIT( .MILLI., .METRE. ) );
#140 = SURFACE_SIDE_STYLE( '', ( #195 ) );
#141 = EDGE_LOOP( '', ( #196 ) );
#142 = EDGE_LOOP( '', ( #197 ) );
#143 = AXIS2_PLACEMENT_3D( '', #198, #199, #200 );
#144 = SURFACE_SIDE_STYLE( '', ( #201 ) );
#145 = EDGE_LOOP( '', ( #202 ) );
#146 = EDGE_LOOP( '', ( #203 ) );
#147 = AXIS2_PLACEMENT_3D( '', #204, #205, #206 );
#148 = SURFACE_SIDE_STYLE( '', ( #207 ) );
#149 = EDGE_LOOP( '', ( #208, #209 ) );
#150 = EDGE_LOOP( '', ( #210 ) );
#151 = AXIS2_PLACEMENT_3D( '', #211, #212, #213 );
#152 = SURFACE_SIDE_STYLE( '', ( #214 ) );
#153 = EDGE_LOOP( '', ( #215 ) );
#154 = EDGE_LOOP( '', ( #216 ) );
#155 = AXIS2_PLACEMENT_3D( '', #217, #218, #219 );
#156 = SURFACE_SIDE_STYLE( '', ( #220 ) );
#157 = EDGE_LOOP( '', ( #221 ) );
#158 = EDGE_LOOP( '', ( #222 ) );
#159 = AXIS2_PLACEMENT_3D( '', #223, #224, #225 );
#160 = SURFACE_SIDE_STYLE( '', ( #226 ) );
#161 = EDGE_LOOP( '', ( #227 ) );
#162 = EDGE_LOOP( '', ( #228 ) );
#163 = AXIS2_PLACEMENT_3D( '', #229, #230, #231 );
#164 = SURFACE_SIDE_STYLE( '', ( #232 ) );
#165 = EDGE_LOOP( '', ( #233 ) );
#166 = EDGE_LOOP( '', ( #234 ) );
#167 = AXIS2_PLACEMENT_3D( '', #235, #236, #237 );
#168 = SURFACE_SIDE_STYLE( '', ( #238 ) );
#169 = EDGE_LOOP( '', ( #239 ) );
#170 = EDGE_LOOP( '', ( #240 ) );
#171 = AXIS2_PLACEMENT_3D( '', #241, #242, #243 );
#172 = SURFACE_SIDE_STYLE( '', ( #244 ) );
#173 = EDGE_LOOP( '', ( #245, #246 ) );
#174 = EDGE_LOOP( '', ( #247 ) );
#175 = AXIS2_PLACEMENT_3D( '', #248, #249, #250 );
#176 = SURFACE_SIDE_STYLE( '', ( #251 ) );
#177 = EDGE_LOOP( '', ( #252 ) );
#178 = EDGE_LOOP( '', ( #253 ) );
#179 = AXIS2_PLACEMENT_3D( '', #254, #255, #256 );
#180 = SURFACE_SIDE_STYLE( '', ( #257 ) );
#181 = EDGE_LOOP( '', ( #258 ) );
#182 = EDGE_LOOP( '', ( #259 ) );
#183 = AXIS2_PLACEMENT_3D( '', #260, #261, #262 );
#184 = SURFACE_SIDE_STYLE( '', ( #263 ) );
#185 = EDGE_LOOP( '', ( #264 ) );
#186 = EDGE_LOOP( '', ( #265 ) );
#187 = EDGE_LOOP( '', ( #266, #267 ) );
#188 = AXIS2_PLACEMENT_3D( '', #268, #269, #270 );
#189 = SURFACE_SIDE_STYLE( '', ( #271 ) );
#190 = EDGE_LOOP( '', ( #272 ) );
#191 = EDGE_LOOP( '', ( #273, #274 ) );
#192 = EDGE_LOOP( '', ( #275 ) );
#193 = AXIS2_PLACEMENT_3D( '', #276, #277, #278 );
#195 = SURFACE_STYLE_FILL_AREA( #279 );
#196 = ORIENTED_EDGE( '', *, *, #280, .F. );
#197 = ORIENTED_EDGE( '', *, *, #281, .T. );
#198 = CARTESIAN_POINT( '', ( -171.000000000000, 0.000000000000000, 0.000000000000000 ) );
#199 = DIRECTION( '', ( 0.000000000000000, -0.000000000000000, 1.00000000000000 ) );
#200 = DIRECTION( '', ( -1.00000000000000, 0.000000000000000, 0.000000000000000 ) );
#201 = SURFACE_STYLE_FILL_AREA( #282 );
#202 = ORIENTED_EDGE( '', *, *, #281, .F. );
#203 = ORIENTED_EDGE( '', *, *, #283, .F. );
#204 = CARTESIAN_POINT( '', ( -171.000000000000, 0.000000000000000, 171.500000000000 ) );
#205 = DIRECTION( '', ( -0.000000000000000, 0.000000000000000, -1.00000000000000 ) );
#206 = DIRECTION( '', ( -1.00000000000000, 0.000000000000000, 0.000000000000000 ) );
#207 = SURFACE_STYLE_FILL_AREA( #284 );
#208 = ORIENTED_EDGE( '', *, *, #285, .F. );
#209 = ORIENTED_EDGE( '', *, *, #286, .F. );
#210 = ORIENTED_EDGE( '', *, *, #283, .T. );
#211 = CARTESIAN_POINT( '', ( -171.000000000000, 0.000000000000000, 172.500000000000 ) );
#212 = DIRECTION( '', ( 0.000000000000000, -0.000000000000000, 1.00000000000000 ) );
#213 = DIRECTION( '', ( -1.00000000000000, 0.000000000000000, 0.000000000000000 ) );
#214 = SURFACE_STYLE_FILL_AREA( #287 );
#215 = ORIENTED_EDGE( '', *, *, #288, .F. );
#216 = ORIENTED_EDGE( '', *, *, #289, .T. );
#217 = CARTESIAN_POINT( '', ( 0.000000000000000, 0.000000000000000, 0.000000000000000 ) );
#218 = DIRECTION( '', ( -1.00000000000000, -0.000000000000000, 0.000000000000000 ) );
#219 = DIRECTION( '', ( -0.000000000000000, 0.000000000000000, -1.00000000000000 ) );
#220 = SURFACE_STYLE_FILL_AREA( #290 );
#221 = ORIENTED_EDGE( '', *, *, #291, .F. );
#222 = ORIENTED_EDGE( '', *, *, #292, .T. );
#223 = CARTESIAN_POINT( '', ( -252.500000000000, 0.000000000000000, 0.000000000000000 ) );
#224 = DIRECTION( '', ( 1.00000000000000, -0.000000000000000, -0.000000000000000 ) );
#225 = DIRECTION( '', ( -0.000000000000000, 0.000000000000000, -1.00000000000000 ) );
#226 = SURFACE_STYLE_FILL_AREA( #293 );
#227 = ORIENTED_EDGE( '', *, *, #294, .F. );
#228 = ORIENTED_EDGE( '', *, *, #280, .T. );
#229 = CARTESIAN_POINT( '', ( -171.000000000000, 0.000000000000000, 82.0000000000001 ) );
#230 = DIRECTION( '', ( -0.000000000000000, -0.000000000000000, -1.00000000000000 ) );
#231 = DIRECTION( '', ( -1.00000000000000, 0.000000000000000, 0.000000000000000 ) );
#232 = SURFACE_STYLE_FILL_AREA( #295 );
#233 = ORIENTED_EDGE( '', *, *, #289, .F. );
#234 = ORIENTED_EDGE( '', *, *, #296, .T. );
#235 = CARTESIAN_POINT( '', ( -98.0500000000000, 0.000000000000000, 0.000000000000000 ) );
#236 = DIRECTION( '', ( -1.00000000000000, 0.000000000000000, -0.000000000000000 ) );
#237 = DIRECTION( '', ( 0.000000000000000, 0.000000000000000, 1.00000000000000 ) );
#238 = SURFACE_STYLE_FILL_AREA( #297 );
#239 = ORIENTED_EDGE( '', *, *, #292, .F. );
#240 = ORIENTED_EDGE( '', *, *, #298, .T. );
#241 = CARTESIAN_POINT( '', ( 0.000000000000000, 0.000000000000000, 0.000000000000000 ) );
#242 = DIRECTION( '', ( -1.00000000000000, -0.000000000000000, 0.000000000000000 ) );
#243 = DIRECTION( '', ( -0.000000000000000, 0.000000000000000, -1.00000000000000 ) );
#244 = SURFACE_STYLE_FILL_AREA( #299 );
#245 = ORIENTED_EDGE( '', *, *, #300, .T. );
#246 = ORIENTED_EDGE( '', *, *, #301, .T. );
#247 = ORIENTED_EDGE( '', *, *, #294, .T. );
#248 = CARTESIAN_POINT( '', ( -171.000000000000, 0.000000000000000, 0.000000000000000 ) );
#249 = DIRECTION( '', ( 0.000000000000000, -0.000000000000000, 1.00000000000000 ) );
#250 = DIRECTION( '', ( -1.00000000000000, 0.000000000000000, 0.000000000000000 ) );
#251 = SURFACE_STYLE_FILL_AREA( #302 );
#252 = ORIENTED_EDGE( '', *, *, #303, .F. );
#253 = ORIENTED_EDGE( '', *, *, #288, .T. );
#254 = CARTESIAN_POINT( '', ( 0.000000000000000, 0.000000000000000, 62.5000000000000 ) );
#255 = DIRECTION( '', ( -1.00000000000000, 0.000000000000000, 0.000000000000000 ) );
#256 = DIRECTION( '', ( 0.000000000000000, 0.000000000000000, 1.00000000000000 ) );
#257 = SURFACE_STYLE_FILL_AREA( #304 );
#258 = ORIENTED_EDGE( '', *, *, #298, .F. );
#259 = ORIENTED_EDGE( '', *, *, #305, .F. );
#260 = CARTESIAN_POINT( '', ( -342.000000000000, 0.000000000000000, 0.000000000000000 ) );
#261 = DIRECTION( '', ( 1.00000000000000, 0.000000000000000, -0.000000000000000 ) );
#262 = DIRECTION( '', ( -0.000000000000000, 0.000000000000000, -1.00000000000000 ) );
#263 = SURFACE_STYLE_FILL_AREA( #306 );
#264 = ORIENTED_EDGE( '', *, *, #303, .T. );
#265 = ORIENTED_EDGE( '', *, *, #305, .T. );
#266 = ORIENTED_EDGE( '', *, *, #285, .T. );
#267 = ORIENTED_EDGE( '', *, *, #286, .T. );
#268 = CARTESIAN_POINT( '', ( 1.00000000000000, 0.000000000000000, 0.000000000000000 ) );
#269 = DIRECTION( '', ( 1.00000000000000, -0.000000000000000, -0.000000000000000 ) );
#270 = DIRECTION( '', ( 0.000000000000000, 0.000000000000000, 1.00000000000000 ) );
#271 = SURFACE_STYLE_FILL_AREA( #307 );
#272 = ORIENTED_EDGE( '', *, *, #296, .F. );
#273 = ORIENTED_EDGE( '', *, *, #300, .F. );
#274 = ORIENTED_EDGE( '', *, *, #301, .F. );
#275 = ORIENTED_EDGE( '', *, *, #291, .T. );
#276 = CARTESIAN_POINT( '', ( 0.000000000000000, 0.000000000000000, 0.000000000000000 ) );
#277 = DIRECTION( '', ( -1.00000000000000, -0.000000000000000, 0.000000000000000 ) );
#278 = DIRECTION( '', ( -0.000000000000000, 0.000000000000000, -1.00000000000000 ) );
#279 = FILL_AREA_STYLE( '', ( #308 ) );
#280 = EDGE_CURVE( '', #309, #309, #310, .T. );
#281 = EDGE_CURVE( '', #311, #311, #312, .T. );
#282 = FILL_AREA_STYLE( '', ( #313 ) );
#283 = EDGE_CURVE( '', #314, #314, #315, .F. );
#284 = FILL_AREA_STYLE( '', ( #316 ) );
#285 = EDGE_CURVE( '', #317, #318, #319, .T. );
#286 = EDGE_CURVE( '', #318, #317, #320, .F. );
#287 = FILL_AREA_STYLE( '', ( #321 ) );
#288 = EDGE_CURVE( '', #322, #322, #323, .T. );
#289 = EDGE_CURVE( '', #324, #324, #325, .T. );
#290 = FILL_AREA_STYLE( '', ( #326 ) );
#291 = EDGE_CURVE( '', #327, #327, #328, .T. );
#292 = EDGE_CURVE( '', #329, #329, #330, .T. );
#293 = FILL_AREA_STYLE( '', ( #331 ) );
#294 = EDGE_CURVE( '', #332, #332, #333, .T. );
#295 = FILL_AREA_STYLE( '', ( #334 ) );
#296 = EDGE_CURVE( '', #335, #335, #336, .T. );
#297 = FILL_AREA_STYLE( '', ( #337 ) );
#298 = EDGE_CURVE( '', #338, #338, #339, .T. );
#299 = FILL_AREA_STYLE( '', ( #340 ) );
#300 = EDGE_CURVE( '', #341, #342, #343, .T. );
#301 = EDGE_CURVE( '', #342, #341, #344, .F. );
#302 = FILL_AREA_STYLE( '', ( #345 ) );
#303 = EDGE_CURVE( '', #346, #346, #347, .F. );
#304 = FILL_AREA_STYLE( '', ( #348 ) );
#305 = EDGE_CURVE( '', #349, #349, #350, .F. );
#306 = FILL_AREA_STYLE( '', ( #351 ) );
#307 = FILL_AREA_STYLE( '', ( #352 ) );
#308 = FILL_AREA_STYLE_COLOUR( '', #353 );
#309 = VERTEX_POINT( '', #354 );
#310 = CIRCLE( '', #355, 62.5000000000000 );
#311 = VERTEX_POINT( '', #356 );
#312 = CIRCLE( '', #357, 62.5000000000000 );
#313 = FILL_AREA_STYLE_COLOUR( '', #358 );
#314 = VERTEX_POINT( '', #359 );
#315 = CIRCLE( '', #360, 45.4000000000000 );
#316 = FILL_AREA_STYLE_COLOUR( '', #361 );
#317 = VERTEX_POINT( '', #362 );
#318 = VERTEX_POINT( '', #363 );
#319 = ELLIPSE( '', #364, 64.2052957317000, 45.4000000000000 );
#320 = ELLIPSE( '', #365, 64.2052957317000, 45.4000000000000 );
#321 = FILL_AREA_STYLE_COLOUR( '', #366 );
#322 = VERTEX_POINT( '', #367 );
#323 = CIRCLE( '', #368, 62.5000000000000 );
#324 = VERTEX_POINT( '', #369 );
#325 = CIRCLE( '', #370, 62.5000000000000 );
#326 = FILL_AREA_STYLE_COLOUR( '', #371 );
#327 = VERTEX_POINT( '', #372 );
#328 = CIRCLE( '', #373, 71.0500000000000 );
#329 = VERTEX_POINT( '', #374 );
#330 = CIRCLE( '', #375, 62.5000000000000 );
#331 = FILL_AREA_STYLE_COLOUR( '', #376 );
#332 = VERTEX_POINT( '', #377 );
#333 = CIRCLE( '', #378, 71.0500000000000 );
#334 = FILL_AREA_STYLE_COLOUR( '', #379 );
#335 = VERTEX_POINT( '', #380 );
#336 = CIRCLE( '', #381, 71.0500000000000 );
#337 = FILL_AREA_STYLE_COLOUR( '', #382 );
#338 = VERTEX_POINT( '', #383 );
#339 = CIRCLE( '', #384, 62.5000000000000 );
#340 = FILL_AREA_STYLE_COLOUR( '', #385 );
#341 = VERTEX_POINT( '', #386 );
#342 = VERTEX_POINT( '', #387 );
#343 = ELLIPSE( '', #388, 100.479873606600, 71.0500000000000 );
#344 = ELLIPSE( '', #389, 100.479873606600, 71.0500000000000 );
#345 = FILL_AREA_STYLE_COLOUR( '', #390 );
#346 = VERTEX_POINT( '', #391 );
#347 = CIRCLE( '', #392, 45.4000000000000 );
#348 = FILL_AREA_STYLE_COLOUR( '', #393 );
#349 = VERTEX_POINT( '', #394 );
#350 = CIRCLE( '', #395, 45.4000000000000 );
#351 = FILL_AREA_STYLE_COLOUR( '', #396 );
#352 = FILL_AREA_STYLE_COLOUR( '', #397 );
#353 = COLOUR_RGB( '', 0.689999997600000, 0.689999997600000, 0.689999997600000 );
#354 = CARTESIAN_POINT( '', ( -233.500000000000, 0.000000000000000, 82.0000000000001 ) );
#355 = AXIS2_PLACEMENT_3D( '', #398, #399, #400 );
#356 = CARTESIAN_POINT( '', ( -233.500000000000, 0.000000000000000, 171.500000000000 ) );
#357 = AXIS2_PLACEMENT_3D( '', #401, #402, #403 );
#358 = COLOUR_RGB( '', 0.689999997600000, 0.689999997600000, 0.689999997600000 );
#359 = CARTESIAN_POINT( '', ( -216.400000000000, 0.000000000000000, 171.500000000000 ) );
#360 = AXIS2_PLACEMENT_3D( '', #404, #405, #406 );
#361 = COLOUR_RGB( '', 0.689999997600000, 0.689999997600000, 0.689999997600000 );
#362 = CARTESIAN_POINT( '', ( -171.000000000000, -45.4000000000000, 0.000000000000000 ) );
#363 = CARTESIAN_POINT( '', ( -171.000000000000, 45.4000000000000, 0.000000000000000 ) );
#364 = AXIS2_PLACEMENT_3D( '', #407, #408, #409 );
#365 = AXIS2_PLACEMENT_3D( '', #410, #411, #412 );
#366 = COLOUR_RGB( '', 0.689999997600000, 0.689999997600000, 0.689999997600000 );
#367 = CARTESIAN_POINT( '', ( 0.000000000000000, 0.000000000000000, -62.5000000000000 ) );
#368 = AXIS2_PLACEMENT_3D( '', #413, #414, #415 );
#369 = CARTESIAN_POINT( '', ( -89.5000000000001, 0.000000000000000, -62.5000000000000 ) );
#370 = AXIS2_PLACEMENT_3D( '', #416, #417, #418 );
#371 = COLOUR_RGB( '', 0.689999997600000, 0.689999997600000, 0.689999997600000 );
#372 = CARTESIAN_POINT( '', ( -243.950000000000, 0.000000000000000, -71.0500000000000 ) );
#373 = AXIS2_PLACEMENT_3D( '', #419, #420, #421 );
#374 = CARTESIAN_POINT( '', ( -252.500000000000, 0.000000000000000, -62.5000000000000 ) );
#375 = AXIS2_PLACEMENT_3D( '', #422, #423, #424 );
#376 = COLOUR_RGB( '', 0.689999997600000, 0.689999997600000, 0.689999997600000 );
#377 = CARTESIAN_POINT( '', ( -242.050000000000, 0.000000000000000, 73.4500000000000 ) );
#378 = AXIS2_PLACEMENT_3D( '', #425, #426, #427 );
#379 = COLOUR_RGB( '', 0.689999997600000, 0.689999997600000, 0.689999997600000 );
#380 = CARTESIAN_POINT( '', ( -98.0500000000000, 0.000000000000000, -71.0500000000000 ) );
#381 = AXIS2_PLACEMENT_3D( '', #428, #429, #430 );
#382 = COLOUR_RGB( '', 0.689999997600000, 0.689999997600000, 0.689999997600000 );
#383 = CARTESIAN_POINT( '', ( -342.000000000000, 0.000000000000000, -62.5000000000000 ) );
#384 = AXIS2_PLACEMENT_3D( '', #431, #432, #433 );
#385 = COLOUR_RGB( '', 0.689999997600000, 0.689999997600000, 0.689999997600000 );
#386 = CARTESIAN_POINT( '', ( -171.000000000000, 71.0500000000000, 0.000000000000000 ) );
#387 = CARTESIAN_POINT( '', ( -171.000000000000, -71.0500000000000, 0.000000000000000 ) );
#388 = AXIS2_PLACEMENT_3D( '', #434, #435, #436 );
#389 = AXIS2_PLACEMENT_3D( '', #437, #438, #439 );
#390 = COLOUR_RGB( '', 0.689999997600000, 0.689999997600000, 0.689999997600000 );
#391 = CARTESIAN_POINT( '', ( 0.000000000000000, 0.000000000000000, 45.4000000000000 ) );
#392 = AXIS2_PLACEMENT_3D( '', #440, #441, #442 );
#393 = COLOUR_RGB( '', 0.689999997600000, 0.689999997600000, 0.689999997600000 );
#394 = CARTESIAN_POINT( '', ( -342.000000000000, 0.000000000000000, -45.4000000000000 ) );
#395 = AXIS2_PLACEMENT_3D( '', #443, #444, #445 );
#396 = COLOUR_RGB( '', 0.689999997600000, 0.689999997600000, 0.689999997600000 );
#397 = COLOUR_RGB( '', 0.689999997600000, 0.689999997600000, 0.689999997600000 );
#398 = CARTESIAN_POINT( '', ( -171.000000000000, 0.000000000000000, 82.0000000000001 ) );
#399 = DIRECTION( '', ( -0.000000000000000, 0.000000000000000, -1.00000000000000 ) );
#400 = DIRECTION( '', ( -1.00000000000000, 0.000000000000000, 0.000000000000000 ) );
#401 = CARTESIAN_POINT( '', ( -171.000000000000, 0.000000000000000, 171.500000000000 ) );
#402 = DIRECTION( '', ( -0.000000000000000, 0.000000000000000, -1.00000000000000 ) );
#403 = DIRECTION( '', ( -1.00000000000000, 0.000000000000000, 0.000000000000000 ) );
#404 = CARTESIAN_POINT( '', ( -171.000000000000, 0.000000000000000, 171.500000000000 ) );
#405 = DIRECTION( '', ( -0.000000000000000, 0.000000000000000, -1.00000000000000 ) );
#406 = DIRECTION( '', ( -1.00000000000000, 0.000000000000000, 0.000000000000000 ) );
#407 = CARTESIAN_POINT( '', ( -171.000000000000, 0.000000000000000, 2.77555756156289E-14 ) );
#408 = DIRECTION( '', ( -0.707106781186548, 0.000000000000000, 0.707106781186548 ) );
#409 = DIRECTION( '', ( -0.707106781186547, -0.000000000000000, -0.707106781186548 ) );
#410 = CARTESIAN_POINT( '', ( -171.000000000000, 0.000000000000000, 2.77555756156289E-14 ) );
#411 = DIRECTION( '', ( -0.707106781186548, 0.000000000000000, -0.707106781186548 ) );
#412 = DIRECTION( '', ( -0.707106781186547, 0.000000000000000, 0.707106781186548 ) );
#413 = CARTESIAN_POINT( '', ( 0.000000000000000, 0.000000000000000, 0.000000000000000 ) );
#414 = DIRECTION( '', ( 1.00000000000000, 0.000000000000000, -0.000000000000000 ) );
#415 = DIRECTION( '', ( -0.000000000000000, 0.000000000000000, -1.00000000000000 ) );
#416 = CARTESIAN_POINT( '', ( -89.5000000000001, 0.000000000000000, 0.000000000000000 ) );
#417 = DIRECTION( '', ( 1.00000000000000, 0.000000000000000, -0.000000000000000 ) );
#418 = DIRECTION( '', ( -0.000000000000000, 0.000000000000000, -1.00000000000000 ) );
#419 = CARTESIAN_POINT( '', ( -243.950000000000, 0.000000000000000, 0.000000000000000 ) );
#420 = DIRECTION( '', ( 1.00000000000000, 0.000000000000000, -0.000000000000000 ) );
#421 = DIRECTION( '', ( -0.000000000000000, 0.000000000000000, -1.00000000000000 ) );
#422 = CARTESIAN_POINT( '', ( -252.500000000000, 0.000000000000000, 0.000000000000000 ) );
#423 = DIRECTION( '', ( 1.00000000000000, 0.000000000000000, -0.000000000000000 ) );
#424 = DIRECTION( '', ( -0.000000000000000, 0.000000000000000, -1.00000000000000 ) );
#425 = CARTESIAN_POINT( '', ( -171.000000000000, 0.000000000000000, 73.4500000000000 ) );
#426 = DIRECTION( '', ( -0.000000000000000, 0.000000000000000, -1.00000000000000 ) );
#427 = DIRECTION( '', ( -1.00000000000000, 0.000000000000000, 0.000000000000000 ) );
#428 = CARTESIAN_POINT( '', ( -98.0500000000000, 0.000000000000000, 0.000000000000000 ) );
#429 = DIRECTION( '', ( 1.00000000000000, 0.000000000000000, -0.000000000000000 ) );
#430 = DIRECTION( '', ( -0.000000000000000, 0.000000000000000, -1.00000000000000 ) );
#431 = CARTESIAN_POINT( '', ( -342.000000000000, 0.000000000000000, 0.000000000000000 ) );
#432 = DIRECTION( '', ( 1.00000000000000, 0.000000000000000, -0.000000000000000 ) );
#433 = DIRECTION( '', ( -0.000000000000000, 0.000000000000000, -1.00000000000000 ) );
#434 = CARTESIAN_POINT( '', ( -171.000000000000, 0.000000000000000, 0.000000000000000 ) );
#435 = DIRECTION( '', ( 0.707106781186548, 0.000000000000000, 0.707106781186548 ) );
#436 = DIRECTION( '', ( 0.707106781186548, -0.000000000000000, -0.707106781186548 ) );
#437 = CARTESIAN_POINT( '', ( -171.000000000000, 0.000000000000000, 0.000000000000000 ) );
#438 = DIRECTION( '', ( 0.707106781186548, 0.000000000000000, -0.707106781186548 ) );
#439 = DIRECTION( '', ( 0.707106781186548, 0.000000000000000, 0.707106781186548 ) );
#440 = CARTESIAN_POINT( '', ( 0.000000000000000, 0.000000000000000, 0.000000000000000 ) );
#441 = DIRECTION( '', ( -1.00000000000000, 0.000000000000000, 0.000000000000000 ) );
#442 = DIRECTION( '', ( 0.000000000000000, 0.000000000000000, 1.00000000000000 ) );
#443 = CARTESIAN_POINT( '', ( -342.000000000000, 0.000000000000000, 0.000000000000000 ) );
#444 = DIRECTION( '', ( 1.00000000000000, 0.000000000000000, -0.000000000000000 ) );
#445 = DIRECTION( '', ( -0.000000000000000, 0.000000000000000, -1.00000000000000 ) );
ENDSEC;
END-ISO-10303-21;
