ISO-10303-21;
HEADER;
/* Generated by software containing ST-Developer
 * from STEP Tools, Inc. (www.steptools.com) 
 */

FILE_DESCRIPTION(
/* description */ (
'Blind Flange - Raised/serrated faces for flat gaskets, FCV, d = 63 mm'),

/* implementation_level */ '2;1');

FILE_NAME(
/* name */ 
'Q:\\Ric010\\FF7\\FIPlastiCAD\\FIP\\Lavoro\\PVC Fittings\\PVC Fittings
 STEP\\FCV\\FCV063.ipt.stp',
/* time_stamp */ '2013-10-01T14:39:58+02:00',
/* author */ ('TraceParts'),
/* organization */ ('TraceParts S.A.'),
/* preprocessor_version */ 'ST-DEVELOPER v15.2',
/* originating_system */ 'Autodesk Inventor 2014',
/* authorisation */ '');

FILE_SCHEMA (('AUTOMOTIVE_DESIGN { 1 0 10303 214 3 1 1 }'));
ENDSEC;

DATA;
#10=SHAPE_REPRESENTATION_RELATIONSHIP('SRR','None',#551,#11);
#11=ADVANCED_BREP_SHAPE_REPRESENTATION($,(#305),#542);
#12=STYLED_ITEM($,(#559),#305);
#13=TOROIDAL_SURFACE($,#325,77.1,5.4);
#14=CONICAL_SURFACE($,#321,31.35,23.5816511448499);
#15=PLANE($,#319);
#16=PLANE($,#323);
#17=PLANE($,#329);
#18=PLANE($,#333);
#19=PLANE($,#337);
#20=PLANE($,#341);
#21=PLANE($,#345);
#22=PLANE($,#349);
#23=PLANE($,#353);
#24=PLANE($,#357);
#25=FACE_BOUND($,#80,.T.);
#26=FACE_BOUND($,#82,.T.);
#27=FACE_BOUND($,#84,.T.);
#28=FACE_BOUND($,#86,.T.);
#29=FACE_BOUND($,#89,.T.);
#30=FACE_BOUND($,#90,.T.);
#31=FACE_BOUND($,#91,.T.);
#32=FACE_BOUND($,#92,.T.);
#33=FACE_BOUND($,#93,.T.);
#34=FACE_BOUND($,#94,.T.);
#35=FACE_BOUND($,#95,.T.);
#36=FACE_BOUND($,#97,.T.);
#37=FACE_BOUND($,#99,.T.);
#38=FACE_BOUND($,#100,.T.);
#39=FACE_BOUND($,#101,.T.);
#40=FACE_BOUND($,#102,.T.);
#41=FACE_BOUND($,#103,.T.);
#42=FACE_BOUND($,#104,.T.);
#43=FACE_BOUND($,#105,.T.);
#44=FACE_BOUND($,#107,.T.);
#45=FACE_BOUND($,#108,.T.);
#46=FACE_BOUND($,#109,.T.);
#47=FACE_BOUND($,#111,.T.);
#48=FACE_BOUND($,#112,.T.);
#49=FACE_BOUND($,#113,.T.);
#50=FACE_BOUND($,#115,.T.);
#51=FACE_BOUND($,#116,.T.);
#52=FACE_BOUND($,#117,.T.);
#53=FACE_BOUND($,#119,.T.);
#54=FACE_BOUND($,#120,.T.);
#55=FACE_BOUND($,#121,.T.);
#56=FACE_BOUND($,#123,.T.);
#57=FACE_BOUND($,#124,.T.);
#58=FACE_BOUND($,#125,.T.);
#59=FACE_BOUND($,#127,.T.);
#60=FACE_BOUND($,#128,.T.);
#61=FACE_BOUND($,#129,.T.);
#62=FACE_BOUND($,#131,.T.);
#63=FACE_OUTER_BOUND($,#79,.T.);
#64=FACE_OUTER_BOUND($,#81,.T.);
#65=FACE_OUTER_BOUND($,#83,.T.);
#66=FACE_OUTER_BOUND($,#85,.T.);
#67=FACE_OUTER_BOUND($,#87,.T.);
#68=FACE_OUTER_BOUND($,#88,.T.);
#69=FACE_OUTER_BOUND($,#96,.T.);
#70=FACE_OUTER_BOUND($,#98,.T.);
#71=FACE_OUTER_BOUND($,#106,.T.);
#72=FACE_OUTER_BOUND($,#110,.T.);
#73=FACE_OUTER_BOUND($,#114,.T.);
#74=FACE_OUTER_BOUND($,#118,.T.);
#75=FACE_OUTER_BOUND($,#122,.T.);
#76=FACE_OUTER_BOUND($,#126,.T.);
#77=FACE_OUTER_BOUND($,#130,.T.);
#78=FACE_OUTER_BOUND($,#132,.T.);
#79=EDGE_LOOP($,(#214));
#80=EDGE_LOOP($,(#215));
#81=EDGE_LOOP($,(#216));
#82=EDGE_LOOP($,(#217));
#83=EDGE_LOOP($,(#218));
#84=EDGE_LOOP($,(#219));
#85=EDGE_LOOP($,(#220));
#86=EDGE_LOOP($,(#221));
#87=EDGE_LOOP($,(#222));
#88=EDGE_LOOP($,(#223));
#89=EDGE_LOOP($,(#224));
#90=EDGE_LOOP($,(#225));
#91=EDGE_LOOP($,(#226));
#92=EDGE_LOOP($,(#227));
#93=EDGE_LOOP($,(#228));
#94=EDGE_LOOP($,(#229));
#95=EDGE_LOOP($,(#230));
#96=EDGE_LOOP($,(#231));
#97=EDGE_LOOP($,(#232));
#98=EDGE_LOOP($,(#233));
#99=EDGE_LOOP($,(#234));
#100=EDGE_LOOP($,(#235));
#101=EDGE_LOOP($,(#236));
#102=EDGE_LOOP($,(#237));
#103=EDGE_LOOP($,(#238));
#104=EDGE_LOOP($,(#239));
#105=EDGE_LOOP($,(#240));
#106=EDGE_LOOP($,(#241));
#107=EDGE_LOOP($,(#242));
#108=EDGE_LOOP($,(#243));
#109=EDGE_LOOP($,(#244));
#110=EDGE_LOOP($,(#245));
#111=EDGE_LOOP($,(#246));
#112=EDGE_LOOP($,(#247));
#113=EDGE_LOOP($,(#248));
#114=EDGE_LOOP($,(#249));
#115=EDGE_LOOP($,(#250));
#116=EDGE_LOOP($,(#251));
#117=EDGE_LOOP($,(#252));
#118=EDGE_LOOP($,(#253));
#119=EDGE_LOOP($,(#254));
#120=EDGE_LOOP($,(#255));
#121=EDGE_LOOP($,(#256));
#122=EDGE_LOOP($,(#257));
#123=EDGE_LOOP($,(#258));
#124=EDGE_LOOP($,(#259));
#125=EDGE_LOOP($,(#260));
#126=EDGE_LOOP($,(#261));
#127=EDGE_LOOP($,(#262));
#128=EDGE_LOOP($,(#263));
#129=EDGE_LOOP($,(#264));
#130=EDGE_LOOP($,(#265));
#131=EDGE_LOOP($,(#266));
#132=EDGE_LOOP($,(#267));
#133=CIRCLE($,#308,9.);
#134=CIRCLE($,#309,9.);
#135=CIRCLE($,#311,9.);
#136=CIRCLE($,#312,9.);
#137=CIRCLE($,#314,9.);
#138=CIRCLE($,#315,9.);
#139=CIRCLE($,#317,9.);
#140=CIRCLE($,#318,9.);
#141=CIRCLE($,#320,29.7);
#142=CIRCLE($,#322,33.);
#143=CIRCLE($,#324,77.1);
#144=CIRCLE($,#326,82.5);
#145=CIRCLE($,#328,82.5);
#146=CIRCLE($,#330,38.775);
#147=CIRCLE($,#332,38.775);
#148=CIRCLE($,#334,36.7125);
#149=CIRCLE($,#336,36.7125);
#150=CIRCLE($,#338,34.65);
#151=CIRCLE($,#340,34.65);
#152=CIRCLE($,#342,32.5875);
#153=CIRCLE($,#344,32.5875);
#154=CIRCLE($,#346,30.525);
#155=CIRCLE($,#348,30.525);
#156=CIRCLE($,#350,28.4625);
#157=CIRCLE($,#352,28.4625);
#158=CIRCLE($,#354,26.4);
#159=CIRCLE($,#356,26.4);
#160=VERTEX_POINT($,#464);
#161=VERTEX_POINT($,#466);
#162=VERTEX_POINT($,#469);
#163=VERTEX_POINT($,#471);
#164=VERTEX_POINT($,#474);
#165=VERTEX_POINT($,#476);
#166=VERTEX_POINT($,#479);
#167=VERTEX_POINT($,#481);
#168=VERTEX_POINT($,#484);
#169=VERTEX_POINT($,#487);
#170=VERTEX_POINT($,#490);
#171=VERTEX_POINT($,#493);
#172=VERTEX_POINT($,#496);
#173=VERTEX_POINT($,#499);
#174=VERTEX_POINT($,#502);
#175=VERTEX_POINT($,#505);
#176=VERTEX_POINT($,#508);
#177=VERTEX_POINT($,#511);
#178=VERTEX_POINT($,#514);
#179=VERTEX_POINT($,#517);
#180=VERTEX_POINT($,#520);
#181=VERTEX_POINT($,#523);
#182=VERTEX_POINT($,#526);
#183=VERTEX_POINT($,#529);
#184=VERTEX_POINT($,#532);
#185=VERTEX_POINT($,#535);
#186=VERTEX_POINT($,#538);
#187=EDGE_CURVE($,#160,#160,#133,.T.);
#188=EDGE_CURVE($,#161,#161,#134,.T.);
#189=EDGE_CURVE($,#162,#162,#135,.T.);
#190=EDGE_CURVE($,#163,#163,#136,.T.);
#191=EDGE_CURVE($,#164,#164,#137,.T.);
#192=EDGE_CURVE($,#165,#165,#138,.T.);
#193=EDGE_CURVE($,#166,#166,#139,.T.);
#194=EDGE_CURVE($,#167,#167,#140,.T.);
#195=EDGE_CURVE($,#168,#168,#141,.T.);
#196=EDGE_CURVE($,#169,#169,#142,.T.);
#197=EDGE_CURVE($,#170,#170,#143,.T.);
#198=EDGE_CURVE($,#171,#171,#144,.T.);
#199=EDGE_CURVE($,#172,#172,#145,.T.);
#200=EDGE_CURVE($,#173,#173,#146,.T.);
#201=EDGE_CURVE($,#174,#174,#147,.T.);
#202=EDGE_CURVE($,#175,#175,#148,.T.);
#203=EDGE_CURVE($,#176,#176,#149,.T.);
#204=EDGE_CURVE($,#177,#177,#150,.T.);
#205=EDGE_CURVE($,#178,#178,#151,.T.);
#206=EDGE_CURVE($,#179,#179,#152,.T.);
#207=EDGE_CURVE($,#180,#180,#153,.T.);
#208=EDGE_CURVE($,#181,#181,#154,.T.);
#209=EDGE_CURVE($,#182,#182,#155,.T.);
#210=EDGE_CURVE($,#183,#183,#156,.T.);
#211=EDGE_CURVE($,#184,#184,#157,.T.);
#212=EDGE_CURVE($,#185,#185,#158,.T.);
#213=EDGE_CURVE($,#186,#186,#159,.T.);
#214=ORIENTED_EDGE($,*,*,#187,.F.);
#215=ORIENTED_EDGE($,*,*,#188,.F.);
#216=ORIENTED_EDGE($,*,*,#189,.F.);
#217=ORIENTED_EDGE($,*,*,#190,.F.);
#218=ORIENTED_EDGE($,*,*,#191,.F.);
#219=ORIENTED_EDGE($,*,*,#192,.F.);
#220=ORIENTED_EDGE($,*,*,#193,.F.);
#221=ORIENTED_EDGE($,*,*,#194,.F.);
#222=ORIENTED_EDGE($,*,*,#195,.F.);
#223=ORIENTED_EDGE($,*,*,#196,.F.);
#224=ORIENTED_EDGE($,*,*,#195,.T.);
#225=ORIENTED_EDGE($,*,*,#188,.T.);
#226=ORIENTED_EDGE($,*,*,#190,.T.);
#227=ORIENTED_EDGE($,*,*,#192,.T.);
#228=ORIENTED_EDGE($,*,*,#194,.T.);
#229=ORIENTED_EDGE($,*,*,#197,.F.);
#230=ORIENTED_EDGE($,*,*,#196,.T.);
#231=ORIENTED_EDGE($,*,*,#198,.F.);
#232=ORIENTED_EDGE($,*,*,#197,.T.);
#233=ORIENTED_EDGE($,*,*,#199,.F.);
#234=ORIENTED_EDGE($,*,*,#198,.T.);
#235=ORIENTED_EDGE($,*,*,#187,.T.);
#236=ORIENTED_EDGE($,*,*,#189,.T.);
#237=ORIENTED_EDGE($,*,*,#191,.T.);
#238=ORIENTED_EDGE($,*,*,#193,.T.);
#239=ORIENTED_EDGE($,*,*,#200,.F.);
#240=ORIENTED_EDGE($,*,*,#199,.T.);
#241=ORIENTED_EDGE($,*,*,#201,.F.);
#242=ORIENTED_EDGE($,*,*,#200,.T.);
#243=ORIENTED_EDGE($,*,*,#202,.F.);
#244=ORIENTED_EDGE($,*,*,#201,.T.);
#245=ORIENTED_EDGE($,*,*,#203,.F.);
#246=ORIENTED_EDGE($,*,*,#202,.T.);
#247=ORIENTED_EDGE($,*,*,#204,.F.);
#248=ORIENTED_EDGE($,*,*,#203,.T.);
#249=ORIENTED_EDGE($,*,*,#205,.F.);
#250=ORIENTED_EDGE($,*,*,#204,.T.);
#251=ORIENTED_EDGE($,*,*,#206,.F.);
#252=ORIENTED_EDGE($,*,*,#205,.T.);
#253=ORIENTED_EDGE($,*,*,#207,.F.);
#254=ORIENTED_EDGE($,*,*,#206,.T.);
#255=ORIENTED_EDGE($,*,*,#208,.F.);
#256=ORIENTED_EDGE($,*,*,#207,.T.);
#257=ORIENTED_EDGE($,*,*,#209,.F.);
#258=ORIENTED_EDGE($,*,*,#208,.T.);
#259=ORIENTED_EDGE($,*,*,#210,.F.);
#260=ORIENTED_EDGE($,*,*,#209,.T.);
#261=ORIENTED_EDGE($,*,*,#211,.F.);
#262=ORIENTED_EDGE($,*,*,#210,.T.);
#263=ORIENTED_EDGE($,*,*,#212,.F.);
#264=ORIENTED_EDGE($,*,*,#211,.T.);
#265=ORIENTED_EDGE($,*,*,#213,.F.);
#266=ORIENTED_EDGE($,*,*,#212,.T.);
#267=ORIENTED_EDGE($,*,*,#213,.T.);
#268=CYLINDRICAL_SURFACE($,#307,9.);
#269=CYLINDRICAL_SURFACE($,#310,9.);
#270=CYLINDRICAL_SURFACE($,#313,9.);
#271=CYLINDRICAL_SURFACE($,#316,9.);
#272=CYLINDRICAL_SURFACE($,#327,82.5);
#273=CYLINDRICAL_SURFACE($,#331,38.775);
#274=CYLINDRICAL_SURFACE($,#335,36.7125);
#275=CYLINDRICAL_SURFACE($,#339,34.65);
#276=CYLINDRICAL_SURFACE($,#343,32.5875);
#277=CYLINDRICAL_SURFACE($,#347,30.525);
#278=CYLINDRICAL_SURFACE($,#351,28.4625);
#279=CYLINDRICAL_SURFACE($,#355,26.4);
#280=ADVANCED_FACE($,(#63,#25),#268,.F.);
#281=ADVANCED_FACE($,(#64,#26),#269,.F.);
#282=ADVANCED_FACE($,(#65,#27),#270,.F.);
#283=ADVANCED_FACE($,(#66,#28),#271,.F.);
#284=ADVANCED_FACE($,(#67),#15,.T.);
#285=ADVANCED_FACE($,(#68,#29),#14,.F.);
#286=ADVANCED_FACE($,(#30,#31,#32,#33,#34,#35),#16,.T.);
#287=ADVANCED_FACE($,(#69,#36),#13,.T.);
#288=ADVANCED_FACE($,(#70,#37),#272,.T.);
#289=ADVANCED_FACE($,(#38,#39,#40,#41,#42,#43),#17,.T.);
#290=ADVANCED_FACE($,(#71,#44),#273,.T.);
#291=ADVANCED_FACE($,(#45,#46),#18,.T.);
#292=ADVANCED_FACE($,(#72,#47),#274,.F.);
#293=ADVANCED_FACE($,(#48,#49),#19,.T.);
#294=ADVANCED_FACE($,(#73,#50),#275,.T.);
#295=ADVANCED_FACE($,(#51,#52),#20,.T.);
#296=ADVANCED_FACE($,(#74,#53),#276,.F.);
#297=ADVANCED_FACE($,(#54,#55),#21,.T.);
#298=ADVANCED_FACE($,(#75,#56),#277,.T.);
#299=ADVANCED_FACE($,(#57,#58),#22,.T.);
#300=ADVANCED_FACE($,(#76,#59),#278,.F.);
#301=ADVANCED_FACE($,(#60,#61),#23,.T.);
#302=ADVANCED_FACE($,(#77,#62),#279,.T.);
#303=ADVANCED_FACE($,(#78),#24,.T.);
#304=CLOSED_SHELL($,(#280,#281,#282,#283,#284,#285,#286,#287,#288,#289,
#290,#291,#292,#293,#294,#295,#296,#297,#298,#299,#300,#301,#302,#303));
#305=MANIFOLD_SOLID_BREP('Solido1',#304);
#306=AXIS2_PLACEMENT_3D('placement',#462,#358,#359);
#307=AXIS2_PLACEMENT_3D($,#463,#360,#361);
#308=AXIS2_PLACEMENT_3D($,#465,#362,#363);
#309=AXIS2_PLACEMENT_3D($,#467,#364,#365);
#310=AXIS2_PLACEMENT_3D($,#468,#366,#367);
#311=AXIS2_PLACEMENT_3D($,#470,#368,#369);
#312=AXIS2_PLACEMENT_3D($,#472,#370,#371);
#313=AXIS2_PLACEMENT_3D($,#473,#372,#373);
#314=AXIS2_PLACEMENT_3D($,#475,#374,#375);
#315=AXIS2_PLACEMENT_3D($,#477,#376,#377);
#316=AXIS2_PLACEMENT_3D($,#478,#378,#379);
#317=AXIS2_PLACEMENT_3D($,#480,#380,#381);
#318=AXIS2_PLACEMENT_3D($,#482,#382,#383);
#319=AXIS2_PLACEMENT_3D($,#483,#384,#385);
#320=AXIS2_PLACEMENT_3D($,#485,#386,#387);
#321=AXIS2_PLACEMENT_3D($,#486,#388,#389);
#322=AXIS2_PLACEMENT_3D($,#488,#390,#391);
#323=AXIS2_PLACEMENT_3D($,#489,#392,#393);
#324=AXIS2_PLACEMENT_3D($,#491,#394,#395);
#325=AXIS2_PLACEMENT_3D($,#492,#396,#397);
#326=AXIS2_PLACEMENT_3D($,#494,#398,#399);
#327=AXIS2_PLACEMENT_3D($,#495,#400,#401);
#328=AXIS2_PLACEMENT_3D($,#497,#402,#403);
#329=AXIS2_PLACEMENT_3D($,#498,#404,#405);
#330=AXIS2_PLACEMENT_3D($,#500,#406,#407);
#331=AXIS2_PLACEMENT_3D($,#501,#408,#409);
#332=AXIS2_PLACEMENT_3D($,#503,#410,#411);
#333=AXIS2_PLACEMENT_3D($,#504,#412,#413);
#334=AXIS2_PLACEMENT_3D($,#506,#414,#415);
#335=AXIS2_PLACEMENT_3D($,#507,#416,#417);
#336=AXIS2_PLACEMENT_3D($,#509,#418,#419);
#337=AXIS2_PLACEMENT_3D($,#510,#420,#421);
#338=AXIS2_PLACEMENT_3D($,#512,#422,#423);
#339=AXIS2_PLACEMENT_3D($,#513,#424,#425);
#340=AXIS2_PLACEMENT_3D($,#515,#426,#427);
#341=AXIS2_PLACEMENT_3D($,#516,#428,#429);
#342=AXIS2_PLACEMENT_3D($,#518,#430,#431);
#343=AXIS2_PLACEMENT_3D($,#519,#432,#433);
#344=AXIS2_PLACEMENT_3D($,#521,#434,#435);
#345=AXIS2_PLACEMENT_3D($,#522,#436,#437);
#346=AXIS2_PLACEMENT_3D($,#524,#438,#439);
#347=AXIS2_PLACEMENT_3D($,#525,#440,#441);
#348=AXIS2_PLACEMENT_3D($,#527,#442,#443);
#349=AXIS2_PLACEMENT_3D($,#528,#444,#445);
#350=AXIS2_PLACEMENT_3D($,#530,#446,#447);
#351=AXIS2_PLACEMENT_3D($,#531,#448,#449);
#352=AXIS2_PLACEMENT_3D($,#533,#450,#451);
#353=AXIS2_PLACEMENT_3D($,#534,#452,#453);
#354=AXIS2_PLACEMENT_3D($,#536,#454,#455);
#355=AXIS2_PLACEMENT_3D($,#537,#456,#457);
#356=AXIS2_PLACEMENT_3D($,#539,#458,#459);
#357=AXIS2_PLACEMENT_3D($,#540,#460,#461);
#358=DIRECTION('axis',(0.,0.,1.));
#359=DIRECTION('refdir',(1.,0.,0.));
#360=DIRECTION('center_axis',(-6.12303176911189E-017,0.,1.));
#361=DIRECTION('ref_axis',(-1.83690953073357E-016,1.,-1.1247455413666E-032));
#362=DIRECTION('center_axis',(-6.12303176911189E-017,1.82815455169837E-016,
1.));
#363=DIRECTION('ref_axis',(-1.83690953073357E-016,1.,-1.1247455413666E-032));
#364=DIRECTION('center_axis',(6.12303176911189E-017,-8.056040087983E-017,
-1.));
#365=DIRECTION('ref_axis',(-1.83690953073357E-016,1.,-1.1247455413666E-032));
#366=DIRECTION('center_axis',(-6.12303176911189E-017,0.,1.));
#367=DIRECTION('ref_axis',(-1.,-1.22460635382238E-016,-6.12303176911189E-017));
#368=DIRECTION('center_axis',(-6.12303176911189E-017,1.82815455169837E-016,
1.));
#369=DIRECTION('ref_axis',(-1.,-1.22460635382238E-016,-6.12303176911189E-017));
#370=DIRECTION('center_axis',(6.12303176911189E-017,-8.056040087983E-017,
-1.));
#371=DIRECTION('ref_axis',(-1.,-1.22460635382238E-016,-6.12303176911189E-017));
#372=DIRECTION('center_axis',(-6.12303176911189E-017,0.,1.));
#373=DIRECTION('ref_axis',(6.12303176911189E-017,-1.,3.74915180455534E-033));
#374=DIRECTION('center_axis',(-6.12303176911189E-017,1.82815455169837E-016,
1.));
#375=DIRECTION('ref_axis',(6.12303176911189E-017,-1.,3.74915180455534E-033));
#376=DIRECTION('center_axis',(6.12303176911189E-017,-8.056040087983E-017,
-1.));
#377=DIRECTION('ref_axis',(6.12303176911189E-017,-1.,3.74915180455534E-033));
#378=DIRECTION('center_axis',(-6.12303176911189E-017,0.,1.));
#379=DIRECTION('ref_axis',(1.,0.,6.12303176911189E-017));
#380=DIRECTION('center_axis',(-6.12303176911189E-017,1.82815455169837E-016,
1.));
#381=DIRECTION('ref_axis',(1.,0.,6.12303176911189E-017));
#382=DIRECTION('center_axis',(6.12303176911189E-017,-8.056040087983E-017,
-1.));
#383=DIRECTION('ref_axis',(1.,0.,6.12303176911189E-017));
#384=DIRECTION('center_axis',(-6.12303176911189E-017,1.19619989185202E-016,
1.));
#385=DIRECTION('ref_axis',(0.,1.,0.));
#386=DIRECTION('center_axis',(6.12303176911189E-017,0.,-1.));
#387=DIRECTION('ref_axis',(0.,-1.,0.));
#388=DIRECTION('center_axis',(-6.12303176911189E-017,0.,1.));
#389=DIRECTION('ref_axis',(0.,-1.,0.));
#390=DIRECTION('center_axis',(6.12303176911189E-017,0.,-1.));
#391=DIRECTION('ref_axis',(0.,-1.,0.));
#392=DIRECTION('center_axis',(-6.12303176911189E-017,8.056040087983E-017,
1.));
#393=DIRECTION('ref_axis',(0.,1.,0.));
#394=DIRECTION('center_axis',(6.12303176911189E-017,0.,-1.));
#395=DIRECTION('ref_axis',(0.,-1.,0.));
#396=DIRECTION('center_axis',(6.12303176911189E-017,0.,-1.));
#397=DIRECTION('ref_axis',(-1.,0.,-6.45947941600091E-017));
#398=DIRECTION('center_axis',(6.12303176911189E-017,0.,-1.));
#399=DIRECTION('ref_axis',(0.,-1.,0.));
#400=DIRECTION('center_axis',(6.12303176911189E-017,0.,-1.));
#401=DIRECTION('ref_axis',(0.,-1.,0.));
#402=DIRECTION('center_axis',(6.12303176911189E-017,0.,-1.));
#403=DIRECTION('ref_axis',(0.,-1.,0.));
#404=DIRECTION('center_axis',(6.12303176911189E-017,-1.82815455169837E-016,
-1.));
#405=DIRECTION('ref_axis',(0.,-1.,0.));
#406=DIRECTION('center_axis',(6.12303176911189E-017,0.,-1.));
#407=DIRECTION('ref_axis',(0.,-1.,0.));
#408=DIRECTION('center_axis',(6.12303176911189E-017,0.,-1.));
#409=DIRECTION('ref_axis',(0.,-1.,0.));
#410=DIRECTION('center_axis',(6.12303176911189E-017,0.,-1.));
#411=DIRECTION('ref_axis',(0.,-1.,0.));
#412=DIRECTION('center_axis',(6.12303176911189E-017,-1.83690953073357E-016,
-1.));
#413=DIRECTION('ref_axis',(-1.1247455413666E-032,-1.,1.83690953073357E-016));
#414=DIRECTION('center_axis',(6.12303176911189E-017,0.,-1.));
#415=DIRECTION('ref_axis',(0.,-1.,0.));
#416=DIRECTION('center_axis',(6.12303176911189E-017,0.,-1.));
#417=DIRECTION('ref_axis',(0.,-1.,0.));
#418=DIRECTION('center_axis',(6.12303176911189E-017,0.,-1.));
#419=DIRECTION('ref_axis',(0.,-1.,0.));
#420=DIRECTION('center_axis',(6.12303176911189E-017,0.,-1.));
#421=DIRECTION('ref_axis',(0.,-1.,0.));
#422=DIRECTION('center_axis',(6.12303176911189E-017,0.,-1.));
#423=DIRECTION('ref_axis',(0.,-1.,0.));
#424=DIRECTION('center_axis',(6.12303176911189E-017,0.,-1.));
#425=DIRECTION('ref_axis',(0.,-1.,0.));
#426=DIRECTION('center_axis',(6.12303176911189E-017,0.,-1.));
#427=DIRECTION('ref_axis',(0.,-1.,0.));
#428=DIRECTION('center_axis',(6.12303176911189E-017,-1.83690953073357E-016,
-1.));
#429=DIRECTION('ref_axis',(-1.1247455413666E-032,-1.,1.83690953073357E-016));
#430=DIRECTION('center_axis',(6.12303176911189E-017,0.,-1.));
#431=DIRECTION('ref_axis',(0.,-1.,0.));
#432=DIRECTION('center_axis',(6.12303176911189E-017,0.,-1.));
#433=DIRECTION('ref_axis',(0.,-1.,0.));
#434=DIRECTION('center_axis',(6.12303176911189E-017,0.,-1.));
#435=DIRECTION('ref_axis',(0.,-1.,0.));
#436=DIRECTION('center_axis',(6.12303176911189E-017,0.,-1.));
#437=DIRECTION('ref_axis',(0.,-1.,0.));
#438=DIRECTION('center_axis',(6.12303176911189E-017,0.,-1.));
#439=DIRECTION('ref_axis',(0.,-1.,0.));
#440=DIRECTION('center_axis',(6.12303176911189E-017,0.,-1.));
#441=DIRECTION('ref_axis',(0.,-1.,0.));
#442=DIRECTION('center_axis',(6.12303176911189E-017,0.,-1.));
#443=DIRECTION('ref_axis',(0.,-1.,0.));
#444=DIRECTION('center_axis',(6.12303176911189E-017,-1.83690953073357E-016,
-1.));
#445=DIRECTION('ref_axis',(-1.1247455413666E-032,-1.,1.83690953073357E-016));
#446=DIRECTION('center_axis',(6.12303176911189E-017,0.,-1.));
#447=DIRECTION('ref_axis',(0.,-1.,0.));
#448=DIRECTION('center_axis',(6.12303176911189E-017,0.,-1.));
#449=DIRECTION('ref_axis',(0.,-1.,0.));
#450=DIRECTION('center_axis',(6.12303176911189E-017,0.,-1.));
#451=DIRECTION('ref_axis',(0.,-1.,0.));
#452=DIRECTION('center_axis',(6.12303176911189E-017,0.,-1.));
#453=DIRECTION('ref_axis',(0.,-1.,0.));
#454=DIRECTION('center_axis',(6.12303176911189E-017,0.,-1.));
#455=DIRECTION('ref_axis',(0.,-1.,0.));
#456=DIRECTION('center_axis',(6.12303176911189E-017,0.,-1.));
#457=DIRECTION('ref_axis',(0.,-1.,0.));
#458=DIRECTION('center_axis',(6.12303176911189E-017,0.,-1.));
#459=DIRECTION('ref_axis',(0.,-1.,0.));
#460=DIRECTION('center_axis',(6.12303176911189E-017,6.12303176911189E-017,
-1.));
#461=DIRECTION('ref_axis',(3.74915180455534E-033,-1.,-6.12303176911189E-017));
#462=CARTESIAN_POINT('',(0.,0.,0.));
#463=CARTESIAN_POINT('Origin',(-62.5,-1.14806845670848E-014,18.));
#464=CARTESIAN_POINT('',(-62.5,-9.00000000000001,2.0625));
#465=CARTESIAN_POINT('Origin',(-62.5,-1.14806845670848E-014,2.0625));
#466=CARTESIAN_POINT('',(-62.5,-9.00000000000001,20.0625));
#467=CARTESIAN_POINT('Origin',(-62.5,-1.14806845670848E-014,20.0625));
#468=CARTESIAN_POINT('Origin',(6.55164399294972E-015,-62.5,18.));
#469=CARTESIAN_POINT('',(9.00000000000001,-62.5,2.0625));
#470=CARTESIAN_POINT('Origin',(7.52750218115193E-015,-62.5,2.0625));
#471=CARTESIAN_POINT('',(9.00000000000001,-62.5,20.0625));
#472=CARTESIAN_POINT('Origin',(6.42535646271179E-015,-62.5,20.0625));
#473=CARTESIAN_POINT('Origin',(62.5,3.82689485569493E-015,18.));
#474=CARTESIAN_POINT('',(62.5,9.,2.06250000000001));
#475=CARTESIAN_POINT('Origin',(62.5,3.82689485569493E-015,2.06250000000001));
#476=CARTESIAN_POINT('',(62.5,9.,20.0625));
#477=CARTESIAN_POINT('Origin',(62.5,3.82689485569493E-015,20.0625));
#478=CARTESIAN_POINT('Origin',(-1.10214571844014E-015,62.5,18.));
#479=CARTESIAN_POINT('',(-9.,62.5,2.0625));
#480=CARTESIAN_POINT('Origin',(-1.26287530237933E-016,62.5,2.0625));
#481=CARTESIAN_POINT('',(-9.,62.5,20.0625));
#482=CARTESIAN_POINT('Origin',(-1.22843324867807E-015,62.5,20.0625));
#483=CARTESIAN_POINT('Origin',(-7.65532046933214E-016,-14.85,12.5025));
#484=CARTESIAN_POINT('',(-7.65532046933214E-016,-29.7,12.5025));
#485=CARTESIAN_POINT('Origin',(-7.65532046933214E-016,0.,12.5025));
#486=CARTESIAN_POINT('Origin',(-9.96982647805643E-016,0.,16.2825));
#487=CARTESIAN_POINT('',(-1.22843324867807E-015,-33.,20.0625));
#488=CARTESIAN_POINT('Origin',(-1.22843324867807E-015,0.,20.0625));
#489=CARTESIAN_POINT('Origin',(-1.22843324867807E-015,-55.05,20.0625));
#490=CARTESIAN_POINT('',(-1.22843324867807E-015,-77.1,20.0625));
#491=CARTESIAN_POINT('Origin',(-1.22843324867807E-015,0.,20.0625));
#492=CARTESIAN_POINT('Origin',(-8.97789533146031E-016,0.,14.6625));
#493=CARTESIAN_POINT('',(-8.97789533146031E-016,-82.5,14.6625));
#494=CARTESIAN_POINT('Origin',(-8.97789533146031E-016,0.,14.6625));
#495=CARTESIAN_POINT('Origin',(-5.12038531691982E-016,0.,8.36250000000001));
#496=CARTESIAN_POINT('',(-1.26287530237933E-016,-82.5,2.06250000000001));
#497=CARTESIAN_POINT('Origin',(-1.26287530237933E-016,0.,2.06250000000001));
#498=CARTESIAN_POINT('Origin',(-1.26287530237933E-016,-60.6375,2.0625));
#499=CARTESIAN_POINT('',(-1.26287530237933E-016,-38.775,2.0625));
#500=CARTESIAN_POINT('Origin',(-1.26287530237933E-016,0.,2.0625));
#501=CARTESIAN_POINT('Origin',(-6.31437651189663E-017,0.,1.03125));
#502=CARTESIAN_POINT('',(3.11855700139484E-032,-38.775,-5.09315828986327E-016));
#503=CARTESIAN_POINT('Origin',(0.,0.,0.));
#504=CARTESIAN_POINT('Origin',(4.27845084092915E-032,-37.74375,-6.98747124343226E-016));
#505=CARTESIAN_POINT('',(5.43834468046346E-032,-36.7125,-8.88178419700125E-016));
#506=CARTESIAN_POINT('Origin',(1.08766893609269E-031,0.,-1.77635683940025E-015));
#507=CARTESIAN_POINT('Origin',(-6.31437651189662E-017,0.,1.03125));
#508=CARTESIAN_POINT('',(-1.26287530237933E-016,-36.7125,2.0625));
#509=CARTESIAN_POINT('Origin',(-1.26287530237933E-016,0.,2.0625));
#510=CARTESIAN_POINT('Origin',(-1.26287530237933E-016,-35.68125,2.0625));
#511=CARTESIAN_POINT('',(-1.26287530237933E-016,-34.65,2.0625));
#512=CARTESIAN_POINT('Origin',(-1.26287530237933E-016,0.,2.0625));
#513=CARTESIAN_POINT('Origin',(-6.31437651189662E-017,0.,1.03125));
#514=CARTESIAN_POINT('',(5.83772934162657E-032,-34.65,-9.5340503883639E-016));
#515=CARTESIAN_POINT('Origin',(1.08766893609269E-031,0.,-1.77635683940025E-015));
#516=CARTESIAN_POINT('Origin',(6.99762318116088E-032,-33.61875,-1.14283633419329E-015));
#517=CARTESIAN_POINT('',(8.15751702069519E-032,-32.5875,-1.33226762955019E-015));
#518=CARTESIAN_POINT('Origin',(1.08766893609269E-031,0.,-1.77635683940025E-015));
#519=CARTESIAN_POINT('Origin',(-6.31437651189662E-017,0.,1.03125));
#520=CARTESIAN_POINT('',(-1.26287530237933E-016,-32.5875,2.0625));
#521=CARTESIAN_POINT('Origin',(-1.26287530237933E-016,0.,2.0625));
#522=CARTESIAN_POINT('Origin',(-1.26287530237933E-016,-31.55625,2.0625));
#523=CARTESIAN_POINT('',(-1.26287530237933E-016,-30.525,2.0625));
#524=CARTESIAN_POINT('Origin',(-1.26287530237933E-016,0.,2.0625));
#525=CARTESIAN_POINT('Origin',(-6.31437651189662E-017,0.,1.03125));
#526=CARTESIAN_POINT('',(8.5569016818583E-032,-30.525,-1.39749424868645E-015));
#527=CARTESIAN_POINT('Origin',(1.08766893609269E-031,0.,-1.77635683940025E-015));
#528=CARTESIAN_POINT('Origin',(9.71679552139261E-032,-29.49375,-1.58692554404335E-015));
#529=CARTESIAN_POINT('',(1.08766893609269E-031,-28.4625,-1.77635683940025E-015));
#530=CARTESIAN_POINT('Origin',(1.08766893609269E-031,0.,-1.77635683940025E-015));
#531=CARTESIAN_POINT('Origin',(-6.31437651189662E-017,0.,1.03125));
#532=CARTESIAN_POINT('',(-1.26287530237933E-016,-28.4625,2.0625));
#533=CARTESIAN_POINT('Origin',(-1.26287530237933E-016,0.,2.0625));
#534=CARTESIAN_POINT('Origin',(-1.26287530237933E-016,-27.43125,2.0625));
#535=CARTESIAN_POINT('',(-1.26287530237933E-016,-26.4,2.0625));
#536=CARTESIAN_POINT('Origin',(-1.26287530237933E-016,0.,2.0625));
#537=CARTESIAN_POINT('Origin',(-6.31437651189662E-017,0.,1.03125));
#538=CARTESIAN_POINT('',(9.89776076402611E-032,-26.4,-1.61648038704554E-015));
#539=CARTESIAN_POINT('Origin',(1.08766893609269E-031,0.,-1.77635683940025E-015));
#540=CARTESIAN_POINT('Origin',(4.94888038201305E-032,-13.2,-8.08240193522769E-016));
#541=UNCERTAINTY_MEASURE_WITH_UNIT(LENGTH_MEASURE(0.01),#543,
'DISTANCE_ACCURACY_VALUE',
'Maximum model space distance between geometric entities at asserted c
onnectivities');
#542=(
GEOMETRIC_REPRESENTATION_CONTEXT(3)
GLOBAL_UNCERTAINTY_ASSIGNED_CONTEXT((#541))
GLOBAL_UNIT_ASSIGNED_CONTEXT((#543,#546,#544))
REPRESENTATION_CONTEXT('','3D')
);
#543=(
LENGTH_UNIT()
NAMED_UNIT(*)
SI_UNIT(.MILLI.,.METRE.)
);
#544=(
NAMED_UNIT(*)
SI_UNIT($,.STERADIAN.)
SOLID_ANGLE_UNIT()
);
#545=DIMENSIONAL_EXPONENTS(0.,0.,0.,0.,0.,0.,0.);
#546=(
CONVERSION_BASED_UNIT('degree',#548)
NAMED_UNIT(#545)
PLANE_ANGLE_UNIT()
);
#547=(
NAMED_UNIT(*)
PLANE_ANGLE_UNIT()
SI_UNIT($,.RADIAN.)
);
#548=PLANE_ANGLE_MEASURE_WITH_UNIT(PLANE_ANGLE_MEASURE(0.01745329252),#547);
#549=SHAPE_DEFINITION_REPRESENTATION(#550,#551);
#550=PRODUCT_DEFINITION_SHAPE('',$,#553);
#551=SHAPE_REPRESENTATION('',(#306),#542);
#552=PRODUCT_DEFINITION_CONTEXT('3D Mechanical Parts',#556,'design');
#553=PRODUCT_DEFINITION('FCV063','FCV063',#554,#552);
#554=PRODUCT_DEFINITION_FORMATION('',$,#558);
#555=APPLICATION_PROTOCOL_DEFINITION('international standard',
'automotive_design',2009,#556);
#556=APPLICATION_CONTEXT(
'Core Data for Automotive Mechanical Design Process');
#557=PRODUCT_CONTEXT('3D Mechanical Parts',#556,'mechanical');
#558=PRODUCT('FCV063','FCV063',$,(#557));
#559=PRESENTATION_STYLE_ASSIGNMENT((#560));
#560=SURFACE_STYLE_USAGE(.BOTH.,#561);
#561=SURFACE_SIDE_STYLE($,(#562));
#562=SURFACE_STYLE_FILL_AREA(#563);
#563=FILL_AREA_STYLE($,(#564));
#564=FILL_AREA_STYLE_COLOUR($,#565);
#565=COLOUR_RGB('',0.509803921568627,0.509803921568627,0.588235294117647);
ENDSEC;
END-ISO-10303-21;
