ISO-10303-21;
HEADER;
/* Generated by software containing ST-Developer
 * from STEP Tools, Inc. (www.steptools.com) 
 */

FILE_DESCRIPTION(
/* description */ (''),
/* implementation_level */ '2;1');

FILE_NAME(
/* name */ 
'Q:\\Ric010\\FF7\\FIPlastiCAD\\FIP\\Lavoro\\PVC Fittings\\PVC Fittings
 STEP\\QRV\\QRV315.ipt.stp',
/* time_stamp */ '2013-10-01T14:53:15+02:00',
/* author */ ('bfaro'),
/* organization */ (''),
/* preprocessor_version */ 'ST-DEVELOPER v15.2',
/* originating_system */ 'Autodesk Inventor 2014',
/* authorisation */ '');

FILE_SCHEMA (('AUTOMOTIVE_DESIGN { 1 0 10303 214 3 1 1 }'));
ENDSEC;

DATA;
#10=SHAPE_REPRESENTATION_RELATIONSHIP('SRR','None',#349,#11);
#11=ADVANCED_BREP_SHAPE_REPRESENTATION($,(#190),#340);
#12=STYLED_ITEM($,(#357),#190);
#13=TOROIDAL_SURFACE($,#213,178.,5.00000000000002);
#14=CYLINDRICAL_SURFACE($,#209,188.5);
#15=CYLINDRICAL_SURFACE($,#215,173.);
#16=CYLINDRICAL_SURFACE($,#219,157.5);
#17=CYLINDRICAL_SURFACE($,#223,145.);
#18=CONICAL_SURFACE($,#195,178.350025626498,22.5000000000009);
#19=CONICAL_SURFACE($,#197,179.592666313617,22.4999999999998);
#20=CONICAL_SURFACE($,#199,180.835307000737,22.5000000000009);
#21=CONICAL_SURFACE($,#201,182.077947687856,22.4999999999998);
#22=CONICAL_SURFACE($,#203,183.320588374975,22.5000000000009);
#23=CONICAL_SURFACE($,#205,184.563229062095,22.5);
#24=FACE_BOUND($,#57,.T.);
#25=FACE_BOUND($,#59,.T.);
#26=FACE_BOUND($,#61,.T.);
#27=FACE_BOUND($,#63,.T.);
#28=FACE_BOUND($,#65,.T.);
#29=FACE_BOUND($,#67,.T.);
#30=FACE_BOUND($,#69,.T.);
#31=FACE_BOUND($,#71,.T.);
#32=FACE_BOUND($,#73,.T.);
#33=FACE_BOUND($,#74,.T.);
#34=FACE_BOUND($,#75,.T.);
#35=FACE_BOUND($,#77,.T.);
#36=FACE_BOUND($,#79,.T.);
#37=FACE_BOUND($,#80,.T.);
#38=FACE_BOUND($,#81,.T.);
#39=FACE_BOUND($,#83,.T.);
#40=FACE_BOUND($,#84,.T.);
#41=FACE_BOUND($,#85,.T.);
#42=FACE_BOUND($,#87,.T.);
#43=FACE_OUTER_BOUND($,#56,.T.);
#44=FACE_OUTER_BOUND($,#58,.T.);
#45=FACE_OUTER_BOUND($,#60,.T.);
#46=FACE_OUTER_BOUND($,#62,.T.);
#47=FACE_OUTER_BOUND($,#64,.T.);
#48=FACE_OUTER_BOUND($,#66,.T.);
#49=FACE_OUTER_BOUND($,#68,.T.);
#50=FACE_OUTER_BOUND($,#70,.T.);
#51=FACE_OUTER_BOUND($,#72,.T.);
#52=FACE_OUTER_BOUND($,#76,.T.);
#53=FACE_OUTER_BOUND($,#78,.T.);
#54=FACE_OUTER_BOUND($,#82,.T.);
#55=FACE_OUTER_BOUND($,#86,.T.);
#56=EDGE_LOOP($,(#136));
#57=EDGE_LOOP($,(#137));
#58=EDGE_LOOP($,(#138));
#59=EDGE_LOOP($,(#139));
#60=EDGE_LOOP($,(#140));
#61=EDGE_LOOP($,(#141));
#62=EDGE_LOOP($,(#142));
#63=EDGE_LOOP($,(#143));
#64=EDGE_LOOP($,(#144));
#65=EDGE_LOOP($,(#145));
#66=EDGE_LOOP($,(#146));
#67=EDGE_LOOP($,(#147));
#68=EDGE_LOOP($,(#148));
#69=EDGE_LOOP($,(#149));
#70=EDGE_LOOP($,(#150));
#71=EDGE_LOOP($,(#151));
#72=EDGE_LOOP($,(#152));
#73=EDGE_LOOP($,(#153));
#74=EDGE_LOOP($,(#154));
#75=EDGE_LOOP($,(#155));
#76=EDGE_LOOP($,(#156));
#77=EDGE_LOOP($,(#157));
#78=EDGE_LOOP($,(#158));
#79=EDGE_LOOP($,(#159));
#80=EDGE_LOOP($,(#160));
#81=EDGE_LOOP($,(#161));
#82=EDGE_LOOP($,(#162));
#83=EDGE_LOOP($,(#163));
#84=EDGE_LOOP($,(#164));
#85=EDGE_LOOP($,(#165));
#86=EDGE_LOOP($,(#166));
#87=EDGE_LOOP($,(#167));
#88=CIRCLE($,#193,177.728705282938);
#89=CIRCLE($,#194,145.);
#90=CIRCLE($,#196,178.971345970058);
#91=CIRCLE($,#198,180.213986657177);
#92=CIRCLE($,#200,181.456627344296);
#93=CIRCLE($,#202,182.699268031416);
#94=CIRCLE($,#204,183.941908718535);
#95=CIRCLE($,#206,185.184549405654);
#96=CIRCLE($,#208,188.5);
#97=CIRCLE($,#210,188.5);
#98=CIRCLE($,#212,178.);
#99=CIRCLE($,#214,173.);
#100=CIRCLE($,#216,173.);
#101=CIRCLE($,#218,157.5);
#102=CIRCLE($,#220,157.5);
#103=CIRCLE($,#222,145.);
#104=VERTEX_POINT($,#292);
#105=VERTEX_POINT($,#294);
#106=VERTEX_POINT($,#297);
#107=VERTEX_POINT($,#300);
#108=VERTEX_POINT($,#303);
#109=VERTEX_POINT($,#306);
#110=VERTEX_POINT($,#309);
#111=VERTEX_POINT($,#312);
#112=VERTEX_POINT($,#315);
#113=VERTEX_POINT($,#318);
#114=VERTEX_POINT($,#321);
#115=VERTEX_POINT($,#324);
#116=VERTEX_POINT($,#327);
#117=VERTEX_POINT($,#330);
#118=VERTEX_POINT($,#333);
#119=VERTEX_POINT($,#336);
#120=EDGE_CURVE($,#104,#104,#88,.T.);
#121=EDGE_CURVE($,#105,#105,#89,.T.);
#122=EDGE_CURVE($,#106,#106,#90,.T.);
#123=EDGE_CURVE($,#107,#107,#91,.T.);
#124=EDGE_CURVE($,#108,#108,#92,.T.);
#125=EDGE_CURVE($,#109,#109,#93,.T.);
#126=EDGE_CURVE($,#110,#110,#94,.T.);
#127=EDGE_CURVE($,#111,#111,#95,.T.);
#128=EDGE_CURVE($,#112,#112,#96,.T.);
#129=EDGE_CURVE($,#113,#113,#97,.T.);
#130=EDGE_CURVE($,#114,#114,#98,.T.);
#131=EDGE_CURVE($,#115,#115,#99,.T.);
#132=EDGE_CURVE($,#116,#116,#100,.T.);
#133=EDGE_CURVE($,#117,#117,#101,.T.);
#134=EDGE_CURVE($,#118,#118,#102,.T.);
#135=EDGE_CURVE($,#119,#119,#103,.T.);
#136=ORIENTED_EDGE($,*,*,#120,.F.);
#137=ORIENTED_EDGE($,*,*,#121,.T.);
#138=ORIENTED_EDGE($,*,*,#122,.F.);
#139=ORIENTED_EDGE($,*,*,#120,.T.);
#140=ORIENTED_EDGE($,*,*,#123,.F.);
#141=ORIENTED_EDGE($,*,*,#122,.T.);
#142=ORIENTED_EDGE($,*,*,#124,.F.);
#143=ORIENTED_EDGE($,*,*,#123,.T.);
#144=ORIENTED_EDGE($,*,*,#125,.F.);
#145=ORIENTED_EDGE($,*,*,#124,.T.);
#146=ORIENTED_EDGE($,*,*,#126,.F.);
#147=ORIENTED_EDGE($,*,*,#125,.T.);
#148=ORIENTED_EDGE($,*,*,#127,.F.);
#149=ORIENTED_EDGE($,*,*,#126,.T.);
#150=ORIENTED_EDGE($,*,*,#128,.F.);
#151=ORIENTED_EDGE($,*,*,#127,.T.);
#152=ORIENTED_EDGE($,*,*,#129,.F.);
#153=ORIENTED_EDGE($,*,*,#128,.T.);
#154=ORIENTED_EDGE($,*,*,#130,.F.);
#155=ORIENTED_EDGE($,*,*,#129,.T.);
#156=ORIENTED_EDGE($,*,*,#131,.F.);
#157=ORIENTED_EDGE($,*,*,#130,.T.);
#158=ORIENTED_EDGE($,*,*,#132,.F.);
#159=ORIENTED_EDGE($,*,*,#131,.T.);
#160=ORIENTED_EDGE($,*,*,#133,.F.);
#161=ORIENTED_EDGE($,*,*,#132,.T.);
#162=ORIENTED_EDGE($,*,*,#134,.F.);
#163=ORIENTED_EDGE($,*,*,#133,.T.);
#164=ORIENTED_EDGE($,*,*,#135,.F.);
#165=ORIENTED_EDGE($,*,*,#134,.T.);
#166=ORIENTED_EDGE($,*,*,#121,.F.);
#167=ORIENTED_EDGE($,*,*,#135,.T.);
#168=PLANE($,#192);
#169=PLANE($,#207);
#170=PLANE($,#211);
#171=PLANE($,#217);
#172=PLANE($,#221);
#173=ADVANCED_FACE($,(#43,#24),#168,.T.);
#174=ADVANCED_FACE($,(#44,#25),#18,.T.);
#175=ADVANCED_FACE($,(#45,#26),#19,.F.);
#176=ADVANCED_FACE($,(#46,#27),#20,.T.);
#177=ADVANCED_FACE($,(#47,#28),#21,.F.);
#178=ADVANCED_FACE($,(#48,#29),#22,.T.);
#179=ADVANCED_FACE($,(#49,#30),#23,.F.);
#180=ADVANCED_FACE($,(#50,#31),#169,.T.);
#181=ADVANCED_FACE($,(#51,#32),#14,.T.);
#182=ADVANCED_FACE($,(#33,#34),#170,.T.);
#183=ADVANCED_FACE($,(#52,#35),#13,.F.);
#184=ADVANCED_FACE($,(#53,#36),#15,.T.);
#185=ADVANCED_FACE($,(#37,#38),#171,.T.);
#186=ADVANCED_FACE($,(#54,#39),#16,.F.);
#187=ADVANCED_FACE($,(#40,#41),#172,.T.);
#188=ADVANCED_FACE($,(#55,#42),#17,.F.);
#189=CLOSED_SHELL($,(#173,#174,#175,#176,#177,#178,#179,#180,#181,#182,
#183,#184,#185,#186,#187,#188));
#190=MANIFOLD_SOLID_BREP('Solido1',#189);
#191=AXIS2_PLACEMENT_3D('placement',#290,#224,#225);
#192=AXIS2_PLACEMENT_3D($,#291,#226,#227);
#193=AXIS2_PLACEMENT_3D($,#293,#228,#229);
#194=AXIS2_PLACEMENT_3D($,#295,#230,#231);
#195=AXIS2_PLACEMENT_3D($,#296,#232,#233);
#196=AXIS2_PLACEMENT_3D($,#298,#234,#235);
#197=AXIS2_PLACEMENT_3D($,#299,#236,#237);
#198=AXIS2_PLACEMENT_3D($,#301,#238,#239);
#199=AXIS2_PLACEMENT_3D($,#302,#240,#241);
#200=AXIS2_PLACEMENT_3D($,#304,#242,#243);
#201=AXIS2_PLACEMENT_3D($,#305,#244,#245);
#202=AXIS2_PLACEMENT_3D($,#307,#246,#247);
#203=AXIS2_PLACEMENT_3D($,#308,#248,#249);
#204=AXIS2_PLACEMENT_3D($,#310,#250,#251);
#205=AXIS2_PLACEMENT_3D($,#311,#252,#253);
#206=AXIS2_PLACEMENT_3D($,#313,#254,#255);
#207=AXIS2_PLACEMENT_3D($,#314,#256,#257);
#208=AXIS2_PLACEMENT_3D($,#316,#258,#259);
#209=AXIS2_PLACEMENT_3D($,#317,#260,#261);
#210=AXIS2_PLACEMENT_3D($,#319,#262,#263);
#211=AXIS2_PLACEMENT_3D($,#320,#264,#265);
#212=AXIS2_PLACEMENT_3D($,#322,#266,#267);
#213=AXIS2_PLACEMENT_3D($,#323,#268,#269);
#214=AXIS2_PLACEMENT_3D($,#325,#270,#271);
#215=AXIS2_PLACEMENT_3D($,#326,#272,#273);
#216=AXIS2_PLACEMENT_3D($,#328,#274,#275);
#217=AXIS2_PLACEMENT_3D($,#329,#276,#277);
#218=AXIS2_PLACEMENT_3D($,#331,#278,#279);
#219=AXIS2_PLACEMENT_3D($,#332,#280,#281);
#220=AXIS2_PLACEMENT_3D($,#334,#282,#283);
#221=AXIS2_PLACEMENT_3D($,#335,#284,#285);
#222=AXIS2_PLACEMENT_3D($,#337,#286,#287);
#223=AXIS2_PLACEMENT_3D($,#338,#288,#289);
#224=DIRECTION('axis',(0.,0.,1.));
#225=DIRECTION('refdir',(1.,0.,0.));
#226=DIRECTION('center_axis',(0.,0.,-1.));
#227=DIRECTION('ref_axis',(-1.,0.,0.));
#228=DIRECTION('center_axis',(0.,0.,1.));
#229=DIRECTION('ref_axis',(0.,-1.,0.));
#230=DIRECTION('center_axis',(0.,0.,1.));
#231=DIRECTION('ref_axis',(0.,-1.,0.));
#232=DIRECTION('center_axis',(0.,0.,1.));
#233=DIRECTION('ref_axis',(0.,-1.,0.));
#234=DIRECTION('center_axis',(0.,0.,1.));
#235=DIRECTION('ref_axis',(0.,-1.,0.));
#236=DIRECTION('center_axis',(0.,0.,-1.));
#237=DIRECTION('ref_axis',(0.,-1.,0.));
#238=DIRECTION('center_axis',(0.,0.,1.));
#239=DIRECTION('ref_axis',(0.,-1.,0.));
#240=DIRECTION('center_axis',(0.,0.,1.));
#241=DIRECTION('ref_axis',(0.,-1.,0.));
#242=DIRECTION('center_axis',(0.,0.,1.));
#243=DIRECTION('ref_axis',(0.,-1.,0.));
#244=DIRECTION('center_axis',(0.,0.,-1.));
#245=DIRECTION('ref_axis',(0.,-1.,0.));
#246=DIRECTION('center_axis',(0.,0.,1.));
#247=DIRECTION('ref_axis',(0.,-1.,0.));
#248=DIRECTION('center_axis',(0.,0.,1.));
#249=DIRECTION('ref_axis',(0.,-1.,0.));
#250=DIRECTION('center_axis',(0.,0.,1.));
#251=DIRECTION('ref_axis',(0.,-1.,0.));
#252=DIRECTION('center_axis',(0.,0.,-1.));
#253=DIRECTION('ref_axis',(0.,-1.,0.));
#254=DIRECTION('center_axis',(0.,0.,1.));
#255=DIRECTION('ref_axis',(0.,-1.,0.));
#256=DIRECTION('center_axis',(0.,0.,-1.));
#257=DIRECTION('ref_axis',(-1.,0.,0.));
#258=DIRECTION('center_axis',(0.,0.,1.));
#259=DIRECTION('ref_axis',(0.,-1.,0.));
#260=DIRECTION('center_axis',(0.,0.,1.));
#261=DIRECTION('ref_axis',(0.,-1.,0.));
#262=DIRECTION('center_axis',(0.,0.,1.));
#263=DIRECTION('ref_axis',(0.,-1.,0.));
#264=DIRECTION('center_axis',(0.,0.,1.));
#265=DIRECTION('ref_axis',(1.,0.,0.));
#266=DIRECTION('center_axis',(0.,0.,1.));
#267=DIRECTION('ref_axis',(0.,-1.,0.));
#268=DIRECTION('center_axis',(0.,0.,1.));
#269=DIRECTION('ref_axis',(1.,0.,0.));
#270=DIRECTION('center_axis',(0.,0.,1.));
#271=DIRECTION('ref_axis',(0.,-1.,0.));
#272=DIRECTION('center_axis',(0.,0.,1.));
#273=DIRECTION('ref_axis',(0.,-1.,0.));
#274=DIRECTION('center_axis',(0.,0.,1.));
#275=DIRECTION('ref_axis',(0.,-1.,0.));
#276=DIRECTION('center_axis',(0.,0.,1.));
#277=DIRECTION('ref_axis',(1.,0.,0.));
#278=DIRECTION('center_axis',(0.,0.,1.));
#279=DIRECTION('ref_axis',(0.,-1.,0.));
#280=DIRECTION('center_axis',(0.,0.,1.));
#281=DIRECTION('ref_axis',(0.,-1.,0.));
#282=DIRECTION('center_axis',(0.,0.,1.));
#283=DIRECTION('ref_axis',(0.,-1.,0.));
#284=DIRECTION('center_axis',(0.,0.,1.));
#285=DIRECTION('ref_axis',(1.,0.,0.));
#286=DIRECTION('center_axis',(0.,0.,1.));
#287=DIRECTION('ref_axis',(0.,-1.,0.));
#288=DIRECTION('center_axis',(0.,0.,1.));
#289=DIRECTION('ref_axis',(0.,-1.,0.));
#290=CARTESIAN_POINT('',(0.,0.,0.));
#291=CARTESIAN_POINT('Origin',(0.,-161.364352641469,-1.34280597630457E-014));
#292=CARTESIAN_POINT('',(0.,-177.728705282938,-2.68561195260914E-014));
#293=CARTESIAN_POINT('Origin',(0.,0.,-2.68578562168109E-014));
#294=CARTESIAN_POINT('',(0.,-145.,0.));
#295=CARTESIAN_POINT('Origin',(0.,0.,0.));
#296=CARTESIAN_POINT('Origin',(0.,0.,1.49999999999997));
#297=CARTESIAN_POINT('',(0.,-178.971345970058,2.99999999999997));
#298=CARTESIAN_POINT('Origin',(0.,0.,2.99999999999997));
#299=CARTESIAN_POINT('Origin',(0.,0.,1.49999999999997));
#300=CARTESIAN_POINT('',(0.,-180.213986657177,-2.88954612313472E-014));
#301=CARTESIAN_POINT('Origin',(0.,0.,-2.88961563010837E-014));
#302=CARTESIAN_POINT('Origin',(0.,0.,1.49999999999997));
#303=CARTESIAN_POINT('',(0.,-181.456627344296,2.99999999999997));
#304=CARTESIAN_POINT('Origin',(0.,0.,2.99999999999997));
#305=CARTESIAN_POINT('Origin',(0.,0.,1.49999999999997));
#306=CARTESIAN_POINT('',(0.,-182.699268031416,-3.09348029366029E-014));
#307=CARTESIAN_POINT('Origin',(0.,0.,-3.09344563853564E-014));
#308=CARTESIAN_POINT('Origin',(0.,0.,1.49999999999997));
#309=CARTESIAN_POINT('',(0.,-183.941908718535,2.99999999999997));
#310=CARTESIAN_POINT('Origin',(0.,0.,2.99999999999997));
#311=CARTESIAN_POINT('Origin',(0.,0.,1.49999999999998));
#312=CARTESIAN_POINT('',(0.,-185.184549405654,0.));
#313=CARTESIAN_POINT('Origin',(0.,0.,0.));
#314=CARTESIAN_POINT('Origin',(0.,-186.842274702827,0.));
#315=CARTESIAN_POINT('',(0.,-188.5,0.));
#316=CARTESIAN_POINT('Origin',(0.,0.,0.));
#317=CARTESIAN_POINT('Origin',(0.,0.,17.));
#318=CARTESIAN_POINT('',(0.,-188.5,34.));
#319=CARTESIAN_POINT('Origin',(0.,0.,34.));
#320=CARTESIAN_POINT('Origin',(0.,-183.25,34.));
#321=CARTESIAN_POINT('',(0.,-178.,34.));
#322=CARTESIAN_POINT('Origin',(0.,0.,34.));
#323=CARTESIAN_POINT('Origin',(0.,0.,39.));
#324=CARTESIAN_POINT('',(0.,-173.,39.));
#325=CARTESIAN_POINT('Origin',(0.,0.,39.));
#326=CARTESIAN_POINT('Origin',(0.,0.,110.9));
#327=CARTESIAN_POINT('',(0.,-173.,182.8));
#328=CARTESIAN_POINT('Origin',(0.,0.,182.8));
#329=CARTESIAN_POINT('Origin',(0.,-165.25,182.8));
#330=CARTESIAN_POINT('',(0.,-157.5,182.8));
#331=CARTESIAN_POINT('Origin',(0.,0.,182.8));
#332=CARTESIAN_POINT('Origin',(0.,0.,100.3));
#333=CARTESIAN_POINT('',(0.,-157.5,17.8));
#334=CARTESIAN_POINT('Origin',(0.,0.,17.8));
#335=CARTESIAN_POINT('Origin',(0.,-151.25,17.8));
#336=CARTESIAN_POINT('',(0.,-145.,17.8));
#337=CARTESIAN_POINT('Origin',(0.,0.,17.8));
#338=CARTESIAN_POINT('Origin',(0.,0.,8.9));
#339=UNCERTAINTY_MEASURE_WITH_UNIT(LENGTH_MEASURE(0.01),#341,
'DISTANCE_ACCURACY_VALUE',
'Maximum model space distance between geometric entities at asserted c
onnectivities');
#340=(
GEOMETRIC_REPRESENTATION_CONTEXT(3)
GLOBAL_UNCERTAINTY_ASSIGNED_CONTEXT((#339))
GLOBAL_UNIT_ASSIGNED_CONTEXT((#341,#344,#342))
REPRESENTATION_CONTEXT('','3D')
);
#341=(
LENGTH_UNIT()
NAMED_UNIT(*)
SI_UNIT(.MILLI.,.METRE.)
);
#342=(
NAMED_UNIT(*)
SI_UNIT($,.STERADIAN.)
SOLID_ANGLE_UNIT()
);
#343=DIMENSIONAL_EXPONENTS(0.,0.,0.,0.,0.,0.,0.);
#344=(
CONVERSION_BASED_UNIT('degree',#346)
NAMED_UNIT(#343)
PLANE_ANGLE_UNIT()
);
#345=(
NAMED_UNIT(*)
PLANE_ANGLE_UNIT()
SI_UNIT($,.RADIAN.)
);
#346=PLANE_ANGLE_MEASURE_WITH_UNIT(PLANE_ANGLE_MEASURE(0.01745329252),#345);
#347=SHAPE_DEFINITION_REPRESENTATION(#348,#349);
#348=PRODUCT_DEFINITION_SHAPE('',$,#351);
#349=SHAPE_REPRESENTATION('',(#191),#340);
#350=PRODUCT_DEFINITION_CONTEXT('3D Mechanical Parts',#354,'design');
#351=PRODUCT_DEFINITION('QRV315','QRV315',#352,#350);
#352=PRODUCT_DEFINITION_FORMATION('',$,#356);
#353=APPLICATION_PROTOCOL_DEFINITION('international standard',
'automotive_design',2009,#354);
#354=APPLICATION_CONTEXT(
'Core Data for Automotive Mechanical Design Process');
#355=PRODUCT_CONTEXT('3D Mechanical Parts',#354,'mechanical');
#356=PRODUCT('QRV315','QRV315',$,(#355));
#357=PRESENTATION_STYLE_ASSIGNMENT((#358));
#358=SURFACE_STYLE_USAGE(.BOTH.,#359);
#359=SURFACE_SIDE_STYLE($,(#360));
#360=SURFACE_STYLE_FILL_AREA(#361);
#361=FILL_AREA_STYLE($,(#362));
#362=FILL_AREA_STYLE_COLOUR($,#363);
#363=COLOUR_RGB('',0.509803921568627,0.509803921568627,0.588235294117647);
ENDSEC;
END-ISO-10303-21;
