ISO-10303-21;
HEADER;
/* Generated by software containing ST-Developer
 * from STEP Tools, Inc. (www.steptools.com) 
 */

FILE_DESCRIPTION(
/* description */ (''),
/* implementation_level */ '2;1');

FILE_NAME(
/* name */ 
'Q:\\Ric010\\FF7\\FIPlastiCAD\\FIP\\Lavoro\\PVC Fittings\\PVC Fittings
 STEP\\DIFV\\DIFV075063212.ipt.stp',
/* time_stamp */ '2013-10-01T14:37:11+02:00',
/* author */ ('bfaro'),
/* organization */ (''),
/* preprocessor_version */ 'ST-DEVELOPER v15.2',
/* originating_system */ 'Autodesk Inventor 2014',
/* authorisation */ '');

FILE_SCHEMA (('AUTOMOTIVE_DESIGN { 1 0 10303 214 3 1 1 }'));
ENDSEC;

DATA;
#10=SHAPE_REPRESENTATION_RELATIONSHIP('SRR','None',#504,#11);
#11=ADVANCED_BREP_SHAPE_REPRESENTATION($,(#299),#495);
#12=STYLED_ITEM($,(#513),#293);
#13=STYLED_ITEM($,(#512),#299);
#14=CYLINDRICAL_SURFACE($,#314,37.5);
#15=CYLINDRICAL_SURFACE($,#317,44.5);
#16=CYLINDRICAL_SURFACE($,#321,36.113);
#17=CYLINDRICAL_SURFACE($,#325,30.5);
#18=CYLINDRICAL_SURFACE($,#329,31.5);
#19=FACE_BOUND($,#60,.T.);
#20=FACE_BOUND($,#70,.T.);
#21=FACE_BOUND($,#72,.T.);
#22=FACE_BOUND($,#74,.T.);
#23=FACE_BOUND($,#76,.T.);
#24=FACE_BOUND($,#77,.T.);
#25=FACE_BOUND($,#78,.T.);
#26=FACE_BOUND($,#80,.T.);
#27=FACE_BOUND($,#81,.T.);
#28=FACE_BOUND($,#82,.T.);
#29=FACE_BOUND($,#84,.T.);
#30=FACE_BOUND($,#86,.T.);
#31=FACE_BOUND($,#88,.T.);
#32=CIRCLE($,#302,44.5);
#33=CIRCLE($,#312,37.5);
#34=CIRCLE($,#313,31.5);
#35=CIRCLE($,#315,37.5);
#36=CIRCLE($,#318,44.5);
#37=CIRCLE($,#320,36.113);
#38=CIRCLE($,#322,36.113);
#39=CIRCLE($,#324,30.5);
#40=CIRCLE($,#326,30.5);
#41=CIRCLE($,#328,31.5);
#42=FACE_OUTER_BOUND($,#59,.T.);
#43=FACE_OUTER_BOUND($,#61,.T.);
#44=FACE_OUTER_BOUND($,#62,.T.);
#45=FACE_OUTER_BOUND($,#63,.T.);
#46=FACE_OUTER_BOUND($,#64,.T.);
#47=FACE_OUTER_BOUND($,#65,.T.);
#48=FACE_OUTER_BOUND($,#66,.T.);
#49=FACE_OUTER_BOUND($,#67,.T.);
#50=FACE_OUTER_BOUND($,#68,.T.);
#51=FACE_OUTER_BOUND($,#69,.T.);
#52=FACE_OUTER_BOUND($,#71,.T.);
#53=FACE_OUTER_BOUND($,#73,.T.);
#54=FACE_OUTER_BOUND($,#75,.T.);
#55=FACE_OUTER_BOUND($,#79,.T.);
#56=FACE_OUTER_BOUND($,#83,.T.);
#57=FACE_OUTER_BOUND($,#85,.T.);
#58=FACE_OUTER_BOUND($,#87,.T.);
#59=EDGE_LOOP($,(#197,#198,#199,#200,#201,#202,#203,#204));
#60=EDGE_LOOP($,(#205));
#61=EDGE_LOOP($,(#206,#207,#208,#209));
#62=EDGE_LOOP($,(#210,#211,#212,#213));
#63=EDGE_LOOP($,(#214,#215,#216,#217));
#64=EDGE_LOOP($,(#218,#219,#220,#221));
#65=EDGE_LOOP($,(#222,#223,#224,#225));
#66=EDGE_LOOP($,(#226,#227,#228,#229));
#67=EDGE_LOOP($,(#230,#231,#232,#233));
#68=EDGE_LOOP($,(#234,#235,#236,#237));
#69=EDGE_LOOP($,(#238));
#70=EDGE_LOOP($,(#239));
#71=EDGE_LOOP($,(#240));
#72=EDGE_LOOP($,(#241));
#73=EDGE_LOOP($,(#242,#243,#244,#245,#246,#247,#248,#249));
#74=EDGE_LOOP($,(#250));
#75=EDGE_LOOP($,(#251));
#76=EDGE_LOOP($,(#252));
#77=EDGE_LOOP($,(#253));
#78=EDGE_LOOP($,(#254));
#79=EDGE_LOOP($,(#255));
#80=EDGE_LOOP($,(#256));
#81=EDGE_LOOP($,(#257));
#82=EDGE_LOOP($,(#258));
#83=EDGE_LOOP($,(#259));
#84=EDGE_LOOP($,(#260));
#85=EDGE_LOOP($,(#261));
#86=EDGE_LOOP($,(#262));
#87=EDGE_LOOP($,(#263));
#88=EDGE_LOOP($,(#264));
#89=LINE($,#418,#113);
#90=LINE($,#420,#114);
#91=LINE($,#422,#115);
#92=LINE($,#424,#116);
#93=LINE($,#426,#117);
#94=LINE($,#428,#118);
#95=LINE($,#430,#119);
#96=LINE($,#431,#120);
#97=LINE($,#437,#121);
#98=LINE($,#438,#122);
#99=LINE($,#439,#123);
#100=LINE($,#442,#124);
#101=LINE($,#443,#125);
#102=LINE($,#446,#126);
#103=LINE($,#447,#127);
#104=LINE($,#450,#128);
#105=LINE($,#451,#129);
#106=LINE($,#454,#130);
#107=LINE($,#455,#131);
#108=LINE($,#458,#132);
#109=LINE($,#459,#133);
#110=LINE($,#462,#134);
#111=LINE($,#463,#135);
#112=LINE($,#465,#136);
#113=VECTOR($,#334,39.350288425444);
#114=VECTOR($,#335,39.350288425444);
#115=VECTOR($,#336,39.350288425444);
#116=VECTOR($,#337,39.350288425444);
#117=VECTOR($,#338,39.350288425444);
#118=VECTOR($,#339,39.350288425444);
#119=VECTOR($,#340,39.350288425444);
#120=VECTOR($,#341,39.350288425444);
#121=VECTOR($,#346,39.350288425444);
#122=VECTOR($,#347,16.);
#123=VECTOR($,#348,16.);
#124=VECTOR($,#351,39.350288425444);
#125=VECTOR($,#352,16.);
#126=VECTOR($,#355,39.350288425444);
#127=VECTOR($,#356,16.);
#128=VECTOR($,#359,39.350288425444);
#129=VECTOR($,#360,16.);
#130=VECTOR($,#363,39.350288425444);
#131=VECTOR($,#364,16.);
#132=VECTOR($,#367,39.350288425444);
#133=VECTOR($,#368,16.);
#134=VECTOR($,#371,39.350288425444);
#135=VECTOR($,#372,16.);
#136=VECTOR($,#375,39.350288425444);
#137=VERTEX_POINT($,#416);
#138=VERTEX_POINT($,#417);
#139=VERTEX_POINT($,#419);
#140=VERTEX_POINT($,#421);
#141=VERTEX_POINT($,#423);
#142=VERTEX_POINT($,#425);
#143=VERTEX_POINT($,#427);
#144=VERTEX_POINT($,#429);
#145=VERTEX_POINT($,#432);
#146=VERTEX_POINT($,#435);
#147=VERTEX_POINT($,#436);
#148=VERTEX_POINT($,#441);
#149=VERTEX_POINT($,#445);
#150=VERTEX_POINT($,#449);
#151=VERTEX_POINT($,#453);
#152=VERTEX_POINT($,#457);
#153=VERTEX_POINT($,#461);
#154=VERTEX_POINT($,#467);
#155=VERTEX_POINT($,#469);
#156=VERTEX_POINT($,#472);
#157=VERTEX_POINT($,#476);
#158=VERTEX_POINT($,#479);
#159=VERTEX_POINT($,#482);
#160=VERTEX_POINT($,#485);
#161=VERTEX_POINT($,#488);
#162=VERTEX_POINT($,#491);
#163=EDGE_CURVE($,#137,#138,#89,.T.);
#164=EDGE_CURVE($,#138,#139,#90,.T.);
#165=EDGE_CURVE($,#139,#140,#91,.T.);
#166=EDGE_CURVE($,#140,#141,#92,.T.);
#167=EDGE_CURVE($,#141,#142,#93,.T.);
#168=EDGE_CURVE($,#142,#143,#94,.T.);
#169=EDGE_CURVE($,#143,#144,#95,.T.);
#170=EDGE_CURVE($,#144,#137,#96,.T.);
#171=EDGE_CURVE($,#145,#145,#32,.T.);
#172=EDGE_CURVE($,#146,#147,#97,.T.);
#173=EDGE_CURVE($,#147,#137,#98,.T.);
#174=EDGE_CURVE($,#146,#144,#99,.T.);
#175=EDGE_CURVE($,#148,#146,#100,.T.);
#176=EDGE_CURVE($,#148,#143,#101,.T.);
#177=EDGE_CURVE($,#149,#148,#102,.T.);
#178=EDGE_CURVE($,#149,#142,#103,.T.);
#179=EDGE_CURVE($,#150,#149,#104,.T.);
#180=EDGE_CURVE($,#150,#141,#105,.T.);
#181=EDGE_CURVE($,#151,#150,#106,.T.);
#182=EDGE_CURVE($,#151,#140,#107,.T.);
#183=EDGE_CURVE($,#152,#151,#108,.T.);
#184=EDGE_CURVE($,#152,#139,#109,.T.);
#185=EDGE_CURVE($,#153,#152,#110,.T.);
#186=EDGE_CURVE($,#153,#138,#111,.T.);
#187=EDGE_CURVE($,#147,#153,#112,.T.);
#188=EDGE_CURVE($,#154,#154,#33,.T.);
#189=EDGE_CURVE($,#155,#155,#34,.T.);
#190=EDGE_CURVE($,#156,#156,#35,.T.);
#191=EDGE_CURVE($,#157,#157,#36,.T.);
#192=EDGE_CURVE($,#158,#158,#37,.T.);
#193=EDGE_CURVE($,#159,#159,#38,.T.);
#194=EDGE_CURVE($,#160,#160,#39,.T.);
#195=EDGE_CURVE($,#161,#161,#40,.T.);
#196=EDGE_CURVE($,#162,#162,#41,.T.);
#197=ORIENTED_EDGE($,*,*,#163,.T.);
#198=ORIENTED_EDGE($,*,*,#164,.T.);
#199=ORIENTED_EDGE($,*,*,#165,.T.);
#200=ORIENTED_EDGE($,*,*,#166,.T.);
#201=ORIENTED_EDGE($,*,*,#167,.T.);
#202=ORIENTED_EDGE($,*,*,#168,.T.);
#203=ORIENTED_EDGE($,*,*,#169,.T.);
#204=ORIENTED_EDGE($,*,*,#170,.T.);
#205=ORIENTED_EDGE($,*,*,#171,.F.);
#206=ORIENTED_EDGE($,*,*,#172,.T.);
#207=ORIENTED_EDGE($,*,*,#173,.T.);
#208=ORIENTED_EDGE($,*,*,#170,.F.);
#209=ORIENTED_EDGE($,*,*,#174,.F.);
#210=ORIENTED_EDGE($,*,*,#175,.T.);
#211=ORIENTED_EDGE($,*,*,#174,.T.);
#212=ORIENTED_EDGE($,*,*,#169,.F.);
#213=ORIENTED_EDGE($,*,*,#176,.F.);
#214=ORIENTED_EDGE($,*,*,#177,.T.);
#215=ORIENTED_EDGE($,*,*,#176,.T.);
#216=ORIENTED_EDGE($,*,*,#168,.F.);
#217=ORIENTED_EDGE($,*,*,#178,.F.);
#218=ORIENTED_EDGE($,*,*,#179,.T.);
#219=ORIENTED_EDGE($,*,*,#178,.T.);
#220=ORIENTED_EDGE($,*,*,#167,.F.);
#221=ORIENTED_EDGE($,*,*,#180,.F.);
#222=ORIENTED_EDGE($,*,*,#181,.T.);
#223=ORIENTED_EDGE($,*,*,#180,.T.);
#224=ORIENTED_EDGE($,*,*,#166,.F.);
#225=ORIENTED_EDGE($,*,*,#182,.F.);
#226=ORIENTED_EDGE($,*,*,#183,.T.);
#227=ORIENTED_EDGE($,*,*,#182,.T.);
#228=ORIENTED_EDGE($,*,*,#165,.F.);
#229=ORIENTED_EDGE($,*,*,#184,.F.);
#230=ORIENTED_EDGE($,*,*,#185,.T.);
#231=ORIENTED_EDGE($,*,*,#184,.T.);
#232=ORIENTED_EDGE($,*,*,#164,.F.);
#233=ORIENTED_EDGE($,*,*,#186,.F.);
#234=ORIENTED_EDGE($,*,*,#187,.T.);
#235=ORIENTED_EDGE($,*,*,#186,.T.);
#236=ORIENTED_EDGE($,*,*,#163,.F.);
#237=ORIENTED_EDGE($,*,*,#173,.F.);
#238=ORIENTED_EDGE($,*,*,#188,.F.);
#239=ORIENTED_EDGE($,*,*,#189,.T.);
#240=ORIENTED_EDGE($,*,*,#190,.F.);
#241=ORIENTED_EDGE($,*,*,#188,.T.);
#242=ORIENTED_EDGE($,*,*,#187,.F.);
#243=ORIENTED_EDGE($,*,*,#172,.F.);
#244=ORIENTED_EDGE($,*,*,#175,.F.);
#245=ORIENTED_EDGE($,*,*,#177,.F.);
#246=ORIENTED_EDGE($,*,*,#179,.F.);
#247=ORIENTED_EDGE($,*,*,#181,.F.);
#248=ORIENTED_EDGE($,*,*,#183,.F.);
#249=ORIENTED_EDGE($,*,*,#185,.F.);
#250=ORIENTED_EDGE($,*,*,#190,.T.);
#251=ORIENTED_EDGE($,*,*,#171,.T.);
#252=ORIENTED_EDGE($,*,*,#191,.F.);
#253=ORIENTED_EDGE($,*,*,#192,.F.);
#254=ORIENTED_EDGE($,*,*,#191,.T.);
#255=ORIENTED_EDGE($,*,*,#193,.F.);
#256=ORIENTED_EDGE($,*,*,#192,.T.);
#257=ORIENTED_EDGE($,*,*,#194,.F.);
#258=ORIENTED_EDGE($,*,*,#193,.T.);
#259=ORIENTED_EDGE($,*,*,#195,.F.);
#260=ORIENTED_EDGE($,*,*,#194,.T.);
#261=ORIENTED_EDGE($,*,*,#196,.F.);
#262=ORIENTED_EDGE($,*,*,#195,.T.);
#263=ORIENTED_EDGE($,*,*,#189,.F.);
#264=ORIENTED_EDGE($,*,*,#196,.T.);
#265=PLANE($,#301);
#266=PLANE($,#303);
#267=PLANE($,#304);
#268=PLANE($,#305);
#269=PLANE($,#306);
#270=PLANE($,#307);
#271=PLANE($,#308);
#272=PLANE($,#309);
#273=PLANE($,#310);
#274=PLANE($,#311);
#275=PLANE($,#316);
#276=PLANE($,#319);
#277=PLANE($,#323);
#278=PLANE($,#327);
#279=ADVANCED_FACE($,(#42,#19),#265,.T.);
#280=ADVANCED_FACE($,(#43),#266,.T.);
#281=ADVANCED_FACE($,(#44),#267,.T.);
#282=ADVANCED_FACE($,(#45),#268,.T.);
#283=ADVANCED_FACE($,(#46),#269,.T.);
#284=ADVANCED_FACE($,(#47),#270,.T.);
#285=ADVANCED_FACE($,(#48),#271,.T.);
#286=ADVANCED_FACE($,(#49),#272,.T.);
#287=ADVANCED_FACE($,(#50),#273,.T.);
#288=ADVANCED_FACE($,(#51,#20),#274,.T.);
#289=ADVANCED_FACE($,(#52,#21),#14,.T.);
#290=ADVANCED_FACE($,(#53,#22),#275,.T.);
#291=ADVANCED_FACE($,(#54,#23),#15,.T.);
#292=ADVANCED_FACE($,(#24,#25),#276,.T.);
#293=ADVANCED_FACE($,(#55,#26),#16,.F.);
#294=ADVANCED_FACE($,(#27,#28),#277,.T.);
#295=ADVANCED_FACE($,(#56,#29),#17,.F.);
#296=ADVANCED_FACE($,(#57,#30),#278,.T.);
#297=ADVANCED_FACE($,(#58,#31),#18,.F.);
#298=CLOSED_SHELL($,(#279,#280,#281,#282,#283,#284,#285,#286,#287,#288,
#289,#290,#291,#292,#293,#294,#295,#296,#297));
#299=MANIFOLD_SOLID_BREP('Solido1',#298);
#300=AXIS2_PLACEMENT_3D('placement',#414,#330,#331);
#301=AXIS2_PLACEMENT_3D($,#415,#332,#333);
#302=AXIS2_PLACEMENT_3D($,#433,#342,#343);
#303=AXIS2_PLACEMENT_3D($,#434,#344,#345);
#304=AXIS2_PLACEMENT_3D($,#440,#349,#350);
#305=AXIS2_PLACEMENT_3D($,#444,#353,#354);
#306=AXIS2_PLACEMENT_3D($,#448,#357,#358);
#307=AXIS2_PLACEMENT_3D($,#452,#361,#362);
#308=AXIS2_PLACEMENT_3D($,#456,#365,#366);
#309=AXIS2_PLACEMENT_3D($,#460,#369,#370);
#310=AXIS2_PLACEMENT_3D($,#464,#373,#374);
#311=AXIS2_PLACEMENT_3D($,#466,#376,#377);
#312=AXIS2_PLACEMENT_3D($,#468,#378,#379);
#313=AXIS2_PLACEMENT_3D($,#470,#380,#381);
#314=AXIS2_PLACEMENT_3D($,#471,#382,#383);
#315=AXIS2_PLACEMENT_3D($,#473,#384,#385);
#316=AXIS2_PLACEMENT_3D($,#474,#386,#387);
#317=AXIS2_PLACEMENT_3D($,#475,#388,#389);
#318=AXIS2_PLACEMENT_3D($,#477,#390,#391);
#319=AXIS2_PLACEMENT_3D($,#478,#392,#393);
#320=AXIS2_PLACEMENT_3D($,#480,#394,#395);
#321=AXIS2_PLACEMENT_3D($,#481,#396,#397);
#322=AXIS2_PLACEMENT_3D($,#483,#398,#399);
#323=AXIS2_PLACEMENT_3D($,#484,#400,#401);
#324=AXIS2_PLACEMENT_3D($,#486,#402,#403);
#325=AXIS2_PLACEMENT_3D($,#487,#404,#405);
#326=AXIS2_PLACEMENT_3D($,#489,#406,#407);
#327=AXIS2_PLACEMENT_3D($,#490,#408,#409);
#328=AXIS2_PLACEMENT_3D($,#492,#410,#411);
#329=AXIS2_PLACEMENT_3D($,#493,#412,#413);
#330=DIRECTION('axis',(0.,0.,1.));
#331=DIRECTION('refdir',(1.,0.,0.));
#332=DIRECTION('center_axis',(0.,0.,1.));
#333=DIRECTION('ref_axis',(1.,0.,0.));
#334=DIRECTION($,(-0.923879532511287,-0.38268343236509,0.));
#335=DIRECTION($,(-0.382683432365089,-0.923879532511287,0.));
#336=DIRECTION($,(0.38268343236509,-0.923879532511287,0.));
#337=DIRECTION($,(0.923879532511287,-0.38268343236509,0.));
#338=DIRECTION($,(0.923879532511287,0.38268343236509,0.));
#339=DIRECTION($,(0.38268343236509,0.923879532511287,0.));
#340=DIRECTION($,(-0.38268343236509,0.923879532511287,0.));
#341=DIRECTION($,(-0.923879532511287,0.38268343236509,0.));
#342=DIRECTION('center_axis',(0.,0.,1.));
#343=DIRECTION('ref_axis',(0.,-1.,0.));
#344=DIRECTION('center_axis',(0.38268343236509,0.923879532511287,0.));
#345=DIRECTION('ref_axis',(-0.923879532511287,0.38268343236509,0.));
#346=DIRECTION($,(-0.923879532511287,0.38268343236509,0.));
#347=DIRECTION($,(0.,0.,1.));
#348=DIRECTION($,(0.,0.,1.));
#349=DIRECTION('center_axis',(0.923879532511287,0.38268343236509,0.));
#350=DIRECTION('ref_axis',(-0.38268343236509,0.923879532511287,0.));
#351=DIRECTION($,(-0.38268343236509,0.923879532511287,0.));
#352=DIRECTION($,(0.,0.,1.));
#353=DIRECTION('center_axis',(0.923879532511287,-0.38268343236509,0.));
#354=DIRECTION('ref_axis',(0.38268343236509,0.923879532511287,0.));
#355=DIRECTION($,(0.38268343236509,0.923879532511287,0.));
#356=DIRECTION($,(0.,0.,1.));
#357=DIRECTION('center_axis',(0.38268343236509,-0.923879532511287,0.));
#358=DIRECTION('ref_axis',(0.923879532511287,0.382683432365089,0.));
#359=DIRECTION($,(0.923879532511287,0.38268343236509,0.));
#360=DIRECTION($,(0.,0.,1.));
#361=DIRECTION('center_axis',(-0.38268343236509,-0.923879532511287,0.));
#362=DIRECTION('ref_axis',(0.923879532511287,-0.38268343236509,0.));
#363=DIRECTION($,(0.923879532511287,-0.38268343236509,0.));
#364=DIRECTION($,(0.,0.,1.));
#365=DIRECTION('center_axis',(-0.923879532511287,-0.38268343236509,0.));
#366=DIRECTION('ref_axis',(0.38268343236509,-0.923879532511287,0.));
#367=DIRECTION($,(0.38268343236509,-0.923879532511287,0.));
#368=DIRECTION($,(0.,0.,1.));
#369=DIRECTION('center_axis',(-0.923879532511287,0.382683432365089,0.));
#370=DIRECTION('ref_axis',(-0.382683432365089,-0.923879532511287,0.));
#371=DIRECTION($,(-0.382683432365089,-0.923879532511287,0.));
#372=DIRECTION($,(0.,0.,1.));
#373=DIRECTION('center_axis',(-0.38268343236509,0.923879532511287,0.));
#374=DIRECTION('ref_axis',(-0.923879532511287,-0.38268343236509,0.));
#375=DIRECTION($,(-0.923879532511287,-0.38268343236509,0.));
#376=DIRECTION('center_axis',(0.,0.,-1.));
#377=DIRECTION('ref_axis',(-1.,0.,0.));
#378=DIRECTION('center_axis',(0.,0.,1.));
#379=DIRECTION('ref_axis',(0.,-1.,0.));
#380=DIRECTION('center_axis',(0.,0.,1.));
#381=DIRECTION('ref_axis',(0.,-1.,0.));
#382=DIRECTION('center_axis',(0.,0.,1.));
#383=DIRECTION('ref_axis',(0.,-1.,0.));
#384=DIRECTION('center_axis',(0.,0.,1.));
#385=DIRECTION('ref_axis',(0.,-1.,0.));
#386=DIRECTION('center_axis',(0.,0.,-1.));
#387=DIRECTION('ref_axis',(-1.,0.,0.));
#388=DIRECTION('center_axis',(0.,0.,1.));
#389=DIRECTION('ref_axis',(0.,-1.,0.));
#390=DIRECTION('center_axis',(0.,0.,1.));
#391=DIRECTION('ref_axis',(0.,-1.,0.));
#392=DIRECTION('center_axis',(0.,0.,1.));
#393=DIRECTION('ref_axis',(1.,0.,0.));
#394=DIRECTION('center_axis',(0.,0.,1.));
#395=DIRECTION('ref_axis',(0.,-1.,0.));
#396=DIRECTION('center_axis',(0.,0.,1.));
#397=DIRECTION('ref_axis',(0.,-1.,0.));
#398=DIRECTION('center_axis',(0.,0.,1.));
#399=DIRECTION('ref_axis',(0.,-1.,0.));
#400=DIRECTION('center_axis',(0.,0.,1.));
#401=DIRECTION('ref_axis',(1.,0.,0.));
#402=DIRECTION('center_axis',(0.,0.,1.));
#403=DIRECTION('ref_axis',(0.,-1.,0.));
#404=DIRECTION('center_axis',(0.,0.,1.));
#405=DIRECTION('ref_axis',(0.,-1.,0.));
#406=DIRECTION('center_axis',(0.,0.,1.));
#407=DIRECTION('ref_axis',(0.,-1.,0.));
#408=DIRECTION('center_axis',(0.,0.,-1.));
#409=DIRECTION('ref_axis',(-1.,0.,0.));
#410=DIRECTION('center_axis',(0.,0.,1.));
#411=DIRECTION('ref_axis',(0.,-1.,0.));
#412=DIRECTION('center_axis',(0.,0.,1.));
#413=DIRECTION('ref_axis',(0.,-1.,0.));
#414=CARTESIAN_POINT('',(0.,0.,0.));
#415=CARTESIAN_POINT('Origin',(1.18498158209448E-014,-8.46415415781768E-016,
60.));
#416=CARTESIAN_POINT('',(0.,51.4136295138887,60.));
#417=CARTESIAN_POINT('',(-36.3549260746835,36.3549260746835,60.));
#418=CARTESIAN_POINT($,(0.,51.4136295138887,60.));
#419=CARTESIAN_POINT('',(-51.4136295138887,-2.66453525910038E-014,60.));
#420=CARTESIAN_POINT($,(-36.3549260746835,36.3549260746835,60.));
#421=CARTESIAN_POINT('',(-36.3549260746835,-36.3549260746835,60.));
#422=CARTESIAN_POINT($,(-51.4136295138887,-2.28570119463235E-014,60.));
#423=CARTESIAN_POINT('',(1.25243437052667E-014,-51.4136295138887,60.));
#424=CARTESIAN_POINT($,(-36.3549260746835,-36.3549260746835,60.));
#425=CARTESIAN_POINT('',(36.3549260746835,-36.3549260746835,60.));
#426=CARTESIAN_POINT($,(1.25243437052667E-014,-51.4136295138887,60.));
#427=CARTESIAN_POINT('',(51.4136295138887,0.,60.));
#428=CARTESIAN_POINT($,(36.3549260746835,-36.3549260746835,60.));
#429=CARTESIAN_POINT('',(36.3549260746835,36.3549260746835,60.));
#430=CARTESIAN_POINT($,(51.4136295138887,-1.9042357633199E-015,60.));
#431=CARTESIAN_POINT($,(36.3549260746835,36.3549260746835,60.));
#432=CARTESIAN_POINT('',(-5.44967825620572E-015,44.5,60.));
#433=CARTESIAN_POINT('Origin',(0.,0.,60.));
#434=CARTESIAN_POINT('Origin',(36.3549260746835,36.3549260746835,44.));
#435=CARTESIAN_POINT('',(36.3549260746835,36.3549260746835,44.));
#436=CARTESIAN_POINT('',(0.,51.4136295138887,44.));
#437=CARTESIAN_POINT($,(36.3549260746835,36.3549260746835,44.));
#438=CARTESIAN_POINT($,(0.,51.4136295138887,44.));
#439=CARTESIAN_POINT($,(36.3549260746835,36.3549260746835,44.));
#440=CARTESIAN_POINT('Origin',(51.4136295138887,-1.9042357633199E-015,44.));
#441=CARTESIAN_POINT('',(51.4136295138887,-1.9042357633199E-015,44.));
#442=CARTESIAN_POINT($,(51.4136295138887,-1.9042357633199E-015,44.));
#443=CARTESIAN_POINT($,(51.4136295138887,-1.9042357633199E-015,44.));
#444=CARTESIAN_POINT('Origin',(36.3549260746835,-36.3549260746835,44.));
#445=CARTESIAN_POINT('',(36.3549260746835,-36.3549260746835,44.));
#446=CARTESIAN_POINT($,(36.3549260746835,-36.3549260746835,44.));
#447=CARTESIAN_POINT($,(36.3549260746835,-36.3549260746835,44.));
#448=CARTESIAN_POINT('Origin',(1.25243437052667E-014,-51.4136295138887,
44.));
#449=CARTESIAN_POINT('',(1.25243437052667E-014,-51.4136295138887,44.));
#450=CARTESIAN_POINT($,(1.25243437052667E-014,-51.4136295138887,44.));
#451=CARTESIAN_POINT($,(1.25243437052667E-014,-51.4136295138887,44.));
#452=CARTESIAN_POINT('Origin',(-36.3549260746835,-36.3549260746835,44.));
#453=CARTESIAN_POINT('',(-36.3549260746835,-36.3549260746835,44.));
#454=CARTESIAN_POINT($,(-36.3549260746835,-36.3549260746835,44.));
#455=CARTESIAN_POINT($,(-36.3549260746835,-36.3549260746835,44.));
#456=CARTESIAN_POINT('Origin',(-51.4136295138887,-2.28570119463235E-014,
44.));
#457=CARTESIAN_POINT('',(-51.4136295138887,-2.28570119463235E-014,44.));
#458=CARTESIAN_POINT($,(-51.4136295138887,-2.28570119463235E-014,44.));
#459=CARTESIAN_POINT($,(-51.4136295138887,-2.28570119463235E-014,44.));
#460=CARTESIAN_POINT('Origin',(-36.3549260746835,36.3549260746835,44.));
#461=CARTESIAN_POINT('',(-36.3549260746835,36.3549260746835,44.));
#462=CARTESIAN_POINT($,(-36.3549260746835,36.3549260746835,44.));
#463=CARTESIAN_POINT($,(-36.3549260746835,36.3549260746835,44.));
#464=CARTESIAN_POINT('Origin',(0.,51.4136295138887,44.));
#465=CARTESIAN_POINT($,(0.,51.4136295138887,44.));
#466=CARTESIAN_POINT('Origin',(0.,-34.5,0.));
#467=CARTESIAN_POINT('',(0.,-37.5,0.));
#468=CARTESIAN_POINT('Origin',(0.,0.,0.));
#469=CARTESIAN_POINT('',(0.,-31.5,0.));
#470=CARTESIAN_POINT('Origin',(0.,0.,0.));
#471=CARTESIAN_POINT('Origin',(0.,0.,22.));
#472=CARTESIAN_POINT('',(0.,-37.5,44.));
#473=CARTESIAN_POINT('Origin',(0.,0.,44.));
#474=CARTESIAN_POINT('Origin',(0.,-41.,44.));
#475=CARTESIAN_POINT('Origin',(0.,0.,71.5));
#476=CARTESIAN_POINT('',(0.,-44.5,99.));
#477=CARTESIAN_POINT('Origin',(0.,0.,99.));
#478=CARTESIAN_POINT('Origin',(0.,-40.3065,99.));
#479=CARTESIAN_POINT('',(0.,-36.113,99.));
#480=CARTESIAN_POINT('Origin',(0.,0.,99.));
#481=CARTESIAN_POINT('Origin',(0.,0.,76.));
#482=CARTESIAN_POINT('',(0.,-36.113,53.));
#483=CARTESIAN_POINT('Origin',(0.,0.,53.));
#484=CARTESIAN_POINT('Origin',(0.,-33.3065,53.));
#485=CARTESIAN_POINT('',(0.,-30.5,53.));
#486=CARTESIAN_POINT('Origin',(0.,0.,53.));
#487=CARTESIAN_POINT('Origin',(0.,0.,45.6));
#488=CARTESIAN_POINT('',(0.,-30.5,38.2));
#489=CARTESIAN_POINT('Origin',(0.,0.,38.2));
#490=CARTESIAN_POINT('Origin',(0.,-31.,38.2));
#491=CARTESIAN_POINT('',(0.,-31.5,38.2));
#492=CARTESIAN_POINT('Origin',(0.,0.,38.2));
#493=CARTESIAN_POINT('Origin',(0.,0.,19.1));
#494=UNCERTAINTY_MEASURE_WITH_UNIT(LENGTH_MEASURE(0.01),#496,
'DISTANCE_ACCURACY_VALUE',
'Maximum model space distance between geometric entities at asserted c
onnectivities');
#495=(
GEOMETRIC_REPRESENTATION_CONTEXT(3)
GLOBAL_UNCERTAINTY_ASSIGNED_CONTEXT((#494))
GLOBAL_UNIT_ASSIGNED_CONTEXT((#496,#499,#497))
REPRESENTATION_CONTEXT('','3D')
);
#496=(
LENGTH_UNIT()
NAMED_UNIT(*)
SI_UNIT(.MILLI.,.METRE.)
);
#497=(
NAMED_UNIT(*)
SI_UNIT($,.STERADIAN.)
SOLID_ANGLE_UNIT()
);
#498=DIMENSIONAL_EXPONENTS(0.,0.,0.,0.,0.,0.,0.);
#499=(
CONVERSION_BASED_UNIT('degree',#501)
NAMED_UNIT(#498)
PLANE_ANGLE_UNIT()
);
#500=(
NAMED_UNIT(*)
PLANE_ANGLE_UNIT()
SI_UNIT($,.RADIAN.)
);
#501=PLANE_ANGLE_MEASURE_WITH_UNIT(PLANE_ANGLE_MEASURE(0.01745329252),#500);
#502=SHAPE_DEFINITION_REPRESENTATION(#503,#504);
#503=PRODUCT_DEFINITION_SHAPE('',$,#506);
#504=SHAPE_REPRESENTATION('',(#300),#495);
#505=PRODUCT_DEFINITION_CONTEXT('3D Mechanical Parts',#509,'design');
#506=PRODUCT_DEFINITION('DIFV075063212','DIFV075063212',#507,#505);
#507=PRODUCT_DEFINITION_FORMATION('',$,#511);
#508=APPLICATION_PROTOCOL_DEFINITION('international standard',
'automotive_design',2009,#509);
#509=APPLICATION_CONTEXT(
'Core Data for Automotive Mechanical Design Process');
#510=PRODUCT_CONTEXT('3D Mechanical Parts',#509,'mechanical');
#511=PRODUCT('DIFV075063212','DIFV075063212',$,(#510));
#512=PRESENTATION_STYLE_ASSIGNMENT((#514));
#513=PRESENTATION_STYLE_ASSIGNMENT((#515));
#514=SURFACE_STYLE_USAGE(.BOTH.,#516);
#515=SURFACE_STYLE_USAGE(.BOTH.,#517);
#516=SURFACE_SIDE_STYLE($,(#518));
#517=SURFACE_SIDE_STYLE($,(#519));
#518=SURFACE_STYLE_FILL_AREA(#520);
#519=SURFACE_STYLE_FILL_AREA(#521);
#520=FILL_AREA_STYLE($,(#522));
#521=FILL_AREA_STYLE($,(#523));
#522=FILL_AREA_STYLE_COLOUR($,#524);
#523=FILL_AREA_STYLE_COLOUR($,#525);
#524=COLOUR_RGB('',0.509803921568627,0.509803921568627,0.588235294117647);
#525=COLOUR_RGB('',1.,0.,0.);
ENDSEC;
END-ISO-10303-21;
