ISO-10303-21;
HEADER;
/* Generated by software containing ST-Developer
 * from STEP Tools, Inc. (www.steptools.com) 
 */

FILE_DESCRIPTION(
/* description */ (''),
/* implementation_level */ '2;1');

FILE_NAME(
/* name */ 'C:\\Users\\Gabriele\\Desktop\\catalogo\\EL50\\EL501600.stp',

/* time_stamp */ '2016-10-17T17:08:31+02:00',
/* author */ ('Gabriele'),
/* organization */ (''),
/* preprocessor_version */ 'ST-DEVELOPER v16.5',
/* originating_system */ 'Autodesk Inventor 2017',
/* authorisation */ '');

FILE_SCHEMA (('AUTOMOTIVE_DESIGN { 1 0 10303 214 3 1 1 }'));
ENDSEC;

DATA;
#10=MECHANICAL_DESIGN_GEOMETRIC_PRESENTATION_REPRESENTATION('',(#13),#399);
#11=SHAPE_REPRESENTATION_RELATIONSHIP('SRR','None',#408,#12);
#12=ADVANCED_BREP_SHAPE_REPRESENTATION('',(#14),#398);
#13=STYLED_ITEM('',(#417),#14);
#14=MANIFOLD_SOLID_BREP('Solido1',#189);
#15=PLANE('',#202);
#16=PLANE('',#212);
#17=PLANE('',#220);
#18=PLANE('',#221);
#19=TOROIDAL_SURFACE('',#199,80.5,0.5);
#20=TOROIDAL_SURFACE('',#206,93.5,0.5);
#21=TOROIDAL_SURFACE('',#209,80.5,0.5);
#22=TOROIDAL_SURFACE('',#216,93.5,0.5);
#23=TOROIDAL_SURFACE('',#217,81.,78.);
#24=FACE_BOUND('',#74,.T.);
#25=FACE_BOUND('',#76,.T.);
#26=FACE_BOUND('',#78,.T.);
#27=FACE_BOUND('',#80,.T.);
#28=FACE_BOUND('',#82,.T.);
#29=FACE_BOUND('',#84,.T.);
#30=FACE_BOUND('',#86,.T.);
#31=FACE_BOUND('',#88,.T.);
#32=FACE_BOUND('',#90,.T.);
#33=FACE_BOUND('',#92,.T.);
#34=FACE_BOUND('',#94,.T.);
#35=FACE_BOUND('',#96,.T.);
#36=FACE_BOUND('',#98,.T.);
#37=CYLINDRICAL_SURFACE('',#197,94.);
#38=CYLINDRICAL_SURFACE('',#204,80.);
#39=CYLINDRICAL_SURFACE('',#208,94.);
#40=CYLINDRICAL_SURFACE('',#214,80.);
#41=CIRCLE('',#195,94.);
#42=CIRCLE('',#196,94.);
#43=CIRCLE('',#198,94.);
#44=CIRCLE('',#200,80.);
#45=CIRCLE('',#201,80.5);
#46=CIRCLE('',#203,93.5);
#47=CIRCLE('',#205,80.);
#48=CIRCLE('',#207,94.);
#49=CIRCLE('',#210,80.);
#50=CIRCLE('',#211,80.5);
#51=CIRCLE('',#213,93.5);
#52=CIRCLE('',#215,80.);
#53=CIRCLE('',#218,78.);
#54=CIRCLE('',#219,78.);
#55=(
BOUNDED_SURFACE()
B_SPLINE_SURFACE(2,2,((#330,#331,#332),(#333,#334,#335),(#336,#337,#338),
(#339,#340,#341),(#342,#343,#344),(#345,#346,#347),(#348,#349,#350),(#351,
#352,#353),(#354,#355,#356)),.UNSPECIFIED.,.F.,.F.,.F.)
B_SPLINE_SURFACE_WITH_KNOTS((3,2,2,2,3),(3,3),(-2.60105290005431,-1.30052645002716,
6.66133814775094E-16,1.30052645002716,2.60105290005431),(0.,1.57079632679688),
 .UNSPECIFIED.)
GEOMETRIC_REPRESENTATION_ITEM()
RATIONAL_B_SPLINE_SURFACE(((1.,0.707106781185847,1.),(0.795924470771736,
0.562803590594451,0.795924470771736),(1.,0.707106781185847,1.),(0.795924470771736,
0.562803590594451,0.795924470771736),(1.,0.707106781185847,1.),(0.795924470771738,
0.562803590594453,0.795924470771738),(1.,0.707106781185847,1.),(0.795924470771736,
0.562803590594451,0.795924470771736),(1.,0.707106781185847,1.)))
REPRESENTATION_ITEM('')
SURFACE()
);
#56=FACE_OUTER_BOUND('',#71,.T.);
#57=FACE_OUTER_BOUND('',#72,.T.);
#58=FACE_OUTER_BOUND('',#73,.T.);
#59=FACE_OUTER_BOUND('',#75,.T.);
#60=FACE_OUTER_BOUND('',#77,.T.);
#61=FACE_OUTER_BOUND('',#79,.T.);
#62=FACE_OUTER_BOUND('',#81,.T.);
#63=FACE_OUTER_BOUND('',#83,.T.);
#64=FACE_OUTER_BOUND('',#85,.T.);
#65=FACE_OUTER_BOUND('',#87,.T.);
#66=FACE_OUTER_BOUND('',#89,.T.);
#67=FACE_OUTER_BOUND('',#91,.T.);
#68=FACE_OUTER_BOUND('',#93,.T.);
#69=FACE_OUTER_BOUND('',#95,.T.);
#70=FACE_OUTER_BOUND('',#97,.T.);
#71=EDGE_LOOP('',(#137,#138,#139,#140));
#72=EDGE_LOOP('',(#141,#142,#143,#144));
#73=EDGE_LOOP('',(#145));
#74=EDGE_LOOP('',(#146,#147));
#75=EDGE_LOOP('',(#148));
#76=EDGE_LOOP('',(#149));
#77=EDGE_LOOP('',(#150));
#78=EDGE_LOOP('',(#151));
#79=EDGE_LOOP('',(#152));
#80=EDGE_LOOP('',(#153));
#81=EDGE_LOOP('',(#154));
#82=EDGE_LOOP('',(#155));
#83=EDGE_LOOP('',(#156,#157));
#84=EDGE_LOOP('',(#158));
#85=EDGE_LOOP('',(#159));
#86=EDGE_LOOP('',(#160));
#87=EDGE_LOOP('',(#161));
#88=EDGE_LOOP('',(#162));
#89=EDGE_LOOP('',(#163));
#90=EDGE_LOOP('',(#164));
#91=EDGE_LOOP('',(#165));
#92=EDGE_LOOP('',(#166));
#93=EDGE_LOOP('',(#167));
#94=EDGE_LOOP('',(#168));
#95=EDGE_LOOP('',(#169));
#96=EDGE_LOOP('',(#170));
#97=EDGE_LOOP('',(#171));
#98=EDGE_LOOP('',(#172));
#99=ELLIPSE('',#191,0.538717173458614,0.500069058266747);
#100=ELLIPSE('',#192,133.29009715654,94.);
#101=ELLIPSE('',#193,0.538717173464542,0.500069058269289);
#102=ELLIPSE('',#194,133.29009715654,94.);
#103=VERTEX_POINT('',#322);
#104=VERTEX_POINT('',#323);
#105=VERTEX_POINT('',#325);
#106=VERTEX_POINT('',#327);
#107=VERTEX_POINT('',#360);
#108=VERTEX_POINT('',#363);
#109=VERTEX_POINT('',#365);
#110=VERTEX_POINT('',#368);
#111=VERTEX_POINT('',#371);
#112=VERTEX_POINT('',#374);
#113=VERTEX_POINT('',#378);
#114=VERTEX_POINT('',#380);
#115=VERTEX_POINT('',#383);
#116=VERTEX_POINT('',#386);
#117=VERTEX_POINT('',#390);
#118=VERTEX_POINT('',#392);
#119=EDGE_CURVE('',#103,#104,#99,.T.);
#120=EDGE_CURVE('',#103,#105,#100,.T.);
#121=EDGE_CURVE('',#106,#105,#101,.T.);
#122=EDGE_CURVE('',#106,#104,#102,.T.);
#123=EDGE_CURVE('',#105,#103,#41,.T.);
#124=EDGE_CURVE('',#106,#104,#42,.T.);
#125=EDGE_CURVE('',#107,#107,#43,.T.);
#126=EDGE_CURVE('',#108,#108,#44,.T.);
#127=EDGE_CURVE('',#109,#109,#45,.T.);
#128=EDGE_CURVE('',#110,#110,#46,.T.);
#129=EDGE_CURVE('',#111,#111,#47,.T.);
#130=EDGE_CURVE('',#112,#112,#48,.T.);
#131=EDGE_CURVE('',#113,#113,#49,.T.);
#132=EDGE_CURVE('',#114,#114,#50,.T.);
#133=EDGE_CURVE('',#115,#115,#51,.T.);
#134=EDGE_CURVE('',#116,#116,#52,.T.);
#135=EDGE_CURVE('',#117,#117,#53,.T.);
#136=EDGE_CURVE('',#118,#118,#54,.T.);
#137=ORIENTED_EDGE('',*,*,#119,.F.);
#138=ORIENTED_EDGE('',*,*,#120,.T.);
#139=ORIENTED_EDGE('',*,*,#121,.F.);
#140=ORIENTED_EDGE('',*,*,#122,.T.);
#141=ORIENTED_EDGE('',*,*,#121,.T.);
#142=ORIENTED_EDGE('',*,*,#123,.T.);
#143=ORIENTED_EDGE('',*,*,#119,.T.);
#144=ORIENTED_EDGE('',*,*,#124,.F.);
#145=ORIENTED_EDGE('',*,*,#125,.F.);
#146=ORIENTED_EDGE('',*,*,#120,.F.);
#147=ORIENTED_EDGE('',*,*,#123,.F.);
#148=ORIENTED_EDGE('',*,*,#126,.T.);
#149=ORIENTED_EDGE('',*,*,#127,.T.);
#150=ORIENTED_EDGE('',*,*,#128,.F.);
#151=ORIENTED_EDGE('',*,*,#127,.F.);
#152=ORIENTED_EDGE('',*,*,#129,.F.);
#153=ORIENTED_EDGE('',*,*,#126,.F.);
#154=ORIENTED_EDGE('',*,*,#130,.T.);
#155=ORIENTED_EDGE('',*,*,#128,.T.);
#156=ORIENTED_EDGE('',*,*,#122,.F.);
#157=ORIENTED_EDGE('',*,*,#124,.T.);
#158=ORIENTED_EDGE('',*,*,#130,.F.);
#159=ORIENTED_EDGE('',*,*,#131,.T.);
#160=ORIENTED_EDGE('',*,*,#132,.T.);
#161=ORIENTED_EDGE('',*,*,#133,.F.);
#162=ORIENTED_EDGE('',*,*,#132,.F.);
#163=ORIENTED_EDGE('',*,*,#134,.T.);
#164=ORIENTED_EDGE('',*,*,#131,.F.);
#165=ORIENTED_EDGE('',*,*,#133,.T.);
#166=ORIENTED_EDGE('',*,*,#125,.T.);
#167=ORIENTED_EDGE('',*,*,#135,.F.);
#168=ORIENTED_EDGE('',*,*,#136,.F.);
#169=ORIENTED_EDGE('',*,*,#129,.T.);
#170=ORIENTED_EDGE('',*,*,#135,.T.);
#171=ORIENTED_EDGE('',*,*,#134,.F.);
#172=ORIENTED_EDGE('',*,*,#136,.T.);
#173=B_SPLINE_SURFACE_WITH_KNOTS('',3,3,((#287,#288,#289,#290,#291,#292,
#293),(#294,#295,#296,#297,#298,#299,#300),(#301,#302,#303,#304,#305,#306,
#307),(#308,#309,#310,#311,#312,#313,#314),(#315,#316,#317,#318,#319,#320,
#321)),.UNSPECIFIED.,.F.,.F.,.F.,(4,1,4),(4,1,1,1,4),(0.,0.5,1.),(-0.541486456673143,
-0.386776040480817,-0.0773552080961631,0.23206562428849,0.541486456673144),
 .UNSPECIFIED.);
#174=ADVANCED_FACE('',(#56),#173,.T.);
#175=ADVANCED_FACE('',(#57),#55,.F.);
#176=ADVANCED_FACE('',(#58,#24),#37,.T.);
#177=ADVANCED_FACE('',(#59,#25),#19,.T.);
#178=ADVANCED_FACE('',(#60,#26),#15,.T.);
#179=ADVANCED_FACE('',(#61,#27),#38,.F.);
#180=ADVANCED_FACE('',(#62,#28),#20,.T.);
#181=ADVANCED_FACE('',(#63,#29),#39,.T.);
#182=ADVANCED_FACE('',(#64,#30),#21,.T.);
#183=ADVANCED_FACE('',(#65,#31),#16,.F.);
#184=ADVANCED_FACE('',(#66,#32),#40,.F.);
#185=ADVANCED_FACE('',(#67,#33),#22,.T.);
#186=ADVANCED_FACE('',(#68,#34),#23,.F.);
#187=ADVANCED_FACE('',(#69,#35),#17,.T.);
#188=ADVANCED_FACE('',(#70,#36),#18,.F.);
#189=CLOSED_SHELL('',(#174,#175,#176,#177,#178,#179,#180,#181,#182,#183,
#184,#185,#186,#187,#188));
#190=AXIS2_PLACEMENT_3D('placement',#286,#222,#223);
#191=AXIS2_PLACEMENT_3D('',#324,#224,#225);
#192=AXIS2_PLACEMENT_3D('',#326,#226,#227);
#193=AXIS2_PLACEMENT_3D('',#328,#228,#229);
#194=AXIS2_PLACEMENT_3D('',#329,#230,#231);
#195=AXIS2_PLACEMENT_3D('',#357,#232,#233);
#196=AXIS2_PLACEMENT_3D('',#358,#234,#235);
#197=AXIS2_PLACEMENT_3D('',#359,#236,#237);
#198=AXIS2_PLACEMENT_3D('',#361,#238,#239);
#199=AXIS2_PLACEMENT_3D('',#362,#240,#241);
#200=AXIS2_PLACEMENT_3D('',#364,#242,#243);
#201=AXIS2_PLACEMENT_3D('',#366,#244,#245);
#202=AXIS2_PLACEMENT_3D('',#367,#246,#247);
#203=AXIS2_PLACEMENT_3D('',#369,#248,#249);
#204=AXIS2_PLACEMENT_3D('',#370,#250,#251);
#205=AXIS2_PLACEMENT_3D('',#372,#252,#253);
#206=AXIS2_PLACEMENT_3D('',#373,#254,#255);
#207=AXIS2_PLACEMENT_3D('',#375,#256,#257);
#208=AXIS2_PLACEMENT_3D('',#376,#258,#259);
#209=AXIS2_PLACEMENT_3D('',#377,#260,#261);
#210=AXIS2_PLACEMENT_3D('',#379,#262,#263);
#211=AXIS2_PLACEMENT_3D('',#381,#264,#265);
#212=AXIS2_PLACEMENT_3D('',#382,#266,#267);
#213=AXIS2_PLACEMENT_3D('',#384,#268,#269);
#214=AXIS2_PLACEMENT_3D('',#385,#270,#271);
#215=AXIS2_PLACEMENT_3D('',#387,#272,#273);
#216=AXIS2_PLACEMENT_3D('',#388,#274,#275);
#217=AXIS2_PLACEMENT_3D('',#389,#276,#277);
#218=AXIS2_PLACEMENT_3D('',#391,#278,#279);
#219=AXIS2_PLACEMENT_3D('',#393,#280,#281);
#220=AXIS2_PLACEMENT_3D('',#394,#282,#283);
#221=AXIS2_PLACEMENT_3D('',#395,#284,#285);
#222=DIRECTION('axis',(0.,0.,1.));
#223=DIRECTION('refdir',(1.,0.,0.));
#224=DIRECTION('center_axis',(0.225086258213043,-0.225086258213043,-0.947983308253528));
#225=DIRECTION('ref_axis',(-0.670325408092301,0.670325443343152,-0.318320039068697));
#226=DIRECTION('center_axis',(0.708979901852843,0.705228685440923,0.));
#227=DIRECTION('ref_axis',(0.705228685440923,-0.708979901852843,0.));
#228=DIRECTION('center_axis',(0.225086258213288,-0.225086258213268,0.947983308253416));
#229=DIRECTION('ref_axis',(0.670325408097456,-0.670325443337839,-0.318320039069031));
#230=DIRECTION('center_axis',(-0.705228685440923,-0.708979901852843,-6.66349892938421E-17));
#231=DIRECTION('ref_axis',(0.708979901852843,-0.705228685440923,0.));
#232=DIRECTION('center_axis',(0.,1.,0.));
#233=DIRECTION('ref_axis',(-1.,0.,0.));
#234=DIRECTION('center_axis',(1.,6.12323399573677E-17,0.));
#235=DIRECTION('ref_axis',(-6.12323399573677E-17,1.,0.));
#236=DIRECTION('center_axis',(0.,1.,0.));
#237=DIRECTION('ref_axis',(-1.,0.,0.));
#238=DIRECTION('center_axis',(0.,-1.,0.));
#239=DIRECTION('ref_axis',(-1.,0.,0.));
#240=DIRECTION('center_axis',(-1.,-6.12323399573677E-17,0.));
#241=DIRECTION('ref_axis',(0.,0.,1.));
#242=DIRECTION('center_axis',(-1.,-6.12323399573677E-17,0.));
#243=DIRECTION('ref_axis',(-6.15826833971767E-17,1.,0.));
#244=DIRECTION('center_axis',(1.,6.12323399573677E-17,0.));
#245=DIRECTION('ref_axis',(-6.12323399573677E-17,1.,0.));
#246=DIRECTION('center_axis',(1.,6.12323399573677E-17,0.));
#247=DIRECTION('ref_axis',(0.,0.,1.));
#248=DIRECTION('center_axis',(-1.,-6.12323399573677E-17,0.));
#249=DIRECTION('ref_axis',(-6.12323399573677E-17,1.,0.));
#250=DIRECTION('center_axis',(1.,2.22044604925031E-16,0.));
#251=DIRECTION('ref_axis',(-2.22044604925031E-16,1.,0.));
#252=DIRECTION('center_axis',(1.,2.22044604925031E-16,0.));
#253=DIRECTION('ref_axis',(-2.22044604925031E-16,1.,0.));
#254=DIRECTION('center_axis',(1.,6.12323399573677E-17,0.));
#255=DIRECTION('ref_axis',(0.,0.,-1.));
#256=DIRECTION('center_axis',(1.,6.12323399573677E-17,0.));
#257=DIRECTION('ref_axis',(-6.12689568110957E-17,1.,0.));
#258=DIRECTION('center_axis',(1.,0.,0.));
#259=DIRECTION('ref_axis',(0.,1.,0.));
#260=DIRECTION('center_axis',(0.,1.,0.));
#261=DIRECTION('ref_axis',(0.,0.,1.));
#262=DIRECTION('center_axis',(0.,1.,0.));
#263=DIRECTION('ref_axis',(-1.,0.,0.));
#264=DIRECTION('center_axis',(0.,-1.,0.));
#265=DIRECTION('ref_axis',(-1.,0.,0.));
#266=DIRECTION('center_axis',(0.,1.,0.));
#267=DIRECTION('ref_axis',(0.,0.,1.));
#268=DIRECTION('center_axis',(0.,1.,0.));
#269=DIRECTION('ref_axis',(-1.,0.,0.));
#270=DIRECTION('center_axis',(0.,1.,0.));
#271=DIRECTION('ref_axis',(-1.,0.,0.));
#272=DIRECTION('center_axis',(0.,1.,0.));
#273=DIRECTION('ref_axis',(-1.,0.,0.));
#274=DIRECTION('center_axis',(0.,1.,0.));
#275=DIRECTION('ref_axis',(0.,0.,1.));
#276=DIRECTION('center_axis',(0.,0.,-1.));
#277=DIRECTION('ref_axis',(-1.,0.,0.));
#278=DIRECTION('center_axis',(-1.,-2.22044604925031E-16,0.));
#279=DIRECTION('ref_axis',(-2.22044604925031E-16,1.,0.));
#280=DIRECTION('center_axis',(0.,1.,0.));
#281=DIRECTION('ref_axis',(-1.,0.,0.));
#282=DIRECTION('center_axis',(1.,2.22044604925031E-16,0.));
#283=DIRECTION('ref_axis',(0.,0.,1.));
#284=DIRECTION('center_axis',(0.,1.,0.));
#285=DIRECTION('ref_axis',(0.,0.,1.));
#286=CARTESIAN_POINT('',(0.,0.,0.));
#287=CARTESIAN_POINT('Ctrl Pts',(80.5526883601568,86.0188398932466,-48.4485747772983));
#288=CARTESIAN_POINT('Ctrl Pts',(83.0511880827304,83.5070502785317,-44.2944614634281));
#289=CARTESIAN_POINT('Ctrl Pts',(89.5851641216482,76.9383190479175,-31.2528947623797));
#290=CARTESIAN_POINT('Ctrl Pts',(95.2281855163544,71.2652815819629,-7.38166596469478));
#291=CARTESIAN_POINT('Ctrl Pts',(92.9512884840998,73.5542897686444,21.9667520285572));
#292=CARTESIAN_POINT('Ctrl Pts',(85.549687805304,80.9952606638167,40.1403481495579));
#293=CARTESIAN_POINT('Ctrl Pts',(80.5526883601567,86.0188398932467,48.4485747772984));
#294=CARTESIAN_POINT('Ctrl Pts',(80.5783068232496,86.1152775762303,-48.4059804165092));
#295=CARTESIAN_POINT('Ctrl Pts',(83.0737300346114,83.6087402500331,-44.2518646933595));
#296=CARTESIAN_POINT('Ctrl Pts',(89.5974542871365,77.0552234158552,-31.2132795045264));
#297=CARTESIAN_POINT('Ctrl Pts',(95.2240101930924,71.4004163130236,-7.36961340586441));
#298=CARTESIAN_POINT('Ctrl Pts',(92.954821249039,73.6813696980845,21.9340262672035));
#299=CARTESIAN_POINT('Ctrl Pts',(85.5691532459733,81.1022029238359,40.0977489702098));
#300=CARTESIAN_POINT('Ctrl Pts',(80.5783068232496,86.1152775762303,48.4059804165092));
#301=CARTESIAN_POINT('Ctrl Pts',(80.6922524331311,86.3077475668689,-48.3587517713776));
#302=CARTESIAN_POINT('Ctrl Pts',(83.1884438992994,83.8115561007006,-44.2043375515367));
#303=CARTESIAN_POINT('Ctrl Pts',(89.7118297608718,77.2881702391282,-31.1682070009622));
#304=CARTESIAN_POINT('Ctrl Pts',(95.3311050639746,71.6688949360254,-7.35557538404507));
#305=CARTESIAN_POINT('Ctrl Pts',(93.065714444506,73.934285555494,21.8962640953733));
#306=CARTESIAN_POINT('Ctrl Pts',(85.6846353654677,81.3153646345323,40.0499233316958));
#307=CARTESIAN_POINT('Ctrl Pts',(80.6922524331311,86.3077475668689,48.3587517713777));
#308=CARTESIAN_POINT('Ctrl Pts',(80.8847224237697,86.4216931767504,-48.4059804165092));
#309=CARTESIAN_POINT('Ctrl Pts',(83.3912597499669,83.9262699653886,-44.2518646933595));
#310=CARTESIAN_POINT('Ctrl Pts',(89.9447765841448,77.4025457128636,-31.2132795045263));
#311=CARTESIAN_POINT('Ctrl Pts',(95.5995836869764,71.7759898069076,-7.36961340586442));
#312=CARTESIAN_POINT('Ctrl Pts',(93.3186303019155,74.045178750961,21.9340262672035));
#313=CARTESIAN_POINT('Ctrl Pts',(85.8977970761641,81.4308467540267,40.0977489702098));
#314=CARTESIAN_POINT('Ctrl Pts',(80.8847224237697,86.4216931767504,48.4059804165092));
#315=CARTESIAN_POINT('Ctrl Pts',(80.9811601067533,86.4473116398432,-48.4485747772983));
#316=CARTESIAN_POINT('Ctrl Pts',(83.4929497214683,83.9488119172696,-44.2944614634281));
#317=CARTESIAN_POINT('Ctrl Pts',(90.0616809520825,77.4148358783518,-31.2528947623797));
#318=CARTESIAN_POINT('Ctrl Pts',(95.7347184180371,71.7718144836456,-7.38166596469478));
#319=CARTESIAN_POINT('Ctrl Pts',(93.4457102313556,74.0487115159003,21.9667520285572));
#320=CARTESIAN_POINT('Ctrl Pts',(86.0047393361833,81.450312194696,40.1403481495579));
#321=CARTESIAN_POINT('Ctrl Pts',(80.9811601067533,86.4473116398432,48.4485747772984));
#322=CARTESIAN_POINT('',(80.5714285714286,86.,48.417402841945));
#323=CARTESIAN_POINT('',(81.,86.4285714285714,48.417402841945));
#324=CARTESIAN_POINT('Origin',(81.0729669975437,85.9270330003666,48.5538116536604));
#325=CARTESIAN_POINT('',(80.5714285714286,86.,-48.417402841945));
#326=CARTESIAN_POINT('Origin',(0.,167.,0.));
#327=CARTESIAN_POINT('',(81.,86.4285714285714,-48.4174028419451));
#328=CARTESIAN_POINT('Origin',(81.072966997548,85.927033000363,-48.5538116536624));
#329=CARTESIAN_POINT('Origin',(8.88178419700125E-15,167.,0.));
#330=CARTESIAN_POINT('Ctrl Pts',(80.5985186735192,86.,48.3722935949327));
#331=CARTESIAN_POINT('Ctrl Pts',(80.5985186735188,86.4014813264811,48.3722935949327));
#332=CARTESIAN_POINT('Ctrl Pts',(81.,86.4014813264808,48.3722935949327));
#333=CARTESIAN_POINT('Ctrl Pts',(43.8055930468505,86.,109.677124992986));
#334=CARTESIAN_POINT('Ctrl Pts',(43.8055930468136,123.194406953186,109.677124992986));
#335=CARTESIAN_POINT('Ctrl Pts',(81.,123.19440695315,109.677124992986));
#336=CARTESIAN_POINT('Ctrl Pts',(-25.0972034765748,86.,90.5876944052304));
#337=CARTESIAN_POINT('Ctrl Pts',(-25.0972034766799,192.09720347668,90.5876944052304));
#338=CARTESIAN_POINT('Ctrl Pts',(81.,192.097203476575,90.5876944052304));
#339=CARTESIAN_POINT('Ctrl Pts',(-94.0000000000001,86.,71.4982638174751));
#340=CARTESIAN_POINT('Ctrl Pts',(-94.0000000001734,261.000000000173,71.4982638174751));
#341=CARTESIAN_POINT('Ctrl Pts',(81.,261.,71.4982638174751));
#342=CARTESIAN_POINT('Ctrl Pts',(-94.,86.,-6.26165785888588E-14));
#343=CARTESIAN_POINT('Ctrl Pts',(-94.0000000001733,261.000000000173,-6.26165785888588E-14));
#344=CARTESIAN_POINT('Ctrl Pts',(81.,261.,-6.26165785888588E-14));
#345=CARTESIAN_POINT('Ctrl Pts',(-93.9999999999999,86.,-71.4982638174752));
#346=CARTESIAN_POINT('Ctrl Pts',(-94.0000000001732,261.000000000173,-71.4982638174752));
#347=CARTESIAN_POINT('Ctrl Pts',(81.,261.,-71.4982638174752));
#348=CARTESIAN_POINT('Ctrl Pts',(-25.0972034765747,86.,-90.5876944052304));
#349=CARTESIAN_POINT('Ctrl Pts',(-25.0972034766797,192.09720347668,-90.5876944052304));
#350=CARTESIAN_POINT('Ctrl Pts',(81.,192.097203476575,-90.5876944052304));
#351=CARTESIAN_POINT('Ctrl Pts',(43.8055930468506,86.,-109.677124992986));
#352=CARTESIAN_POINT('Ctrl Pts',(43.8055930468138,123.194406953186,-109.677124992986));
#353=CARTESIAN_POINT('Ctrl Pts',(81.,123.194406953149,-109.677124992986));
#354=CARTESIAN_POINT('Ctrl Pts',(80.5985186735193,86.,-48.3722935949326));
#355=CARTESIAN_POINT('Ctrl Pts',(80.5985186735189,86.4014813264811,-48.3722935949326));
#356=CARTESIAN_POINT('Ctrl Pts',(81.,86.4014813264807,-48.3722935949326));
#357=CARTESIAN_POINT('Origin',(0.,86.,0.));
#358=CARTESIAN_POINT('Origin',(81.,167.,0.));
#359=CARTESIAN_POINT('Origin',(0.,0.,0.));
#360=CARTESIAN_POINT('',(94.,0.5,1.15116799119851E-14));
#361=CARTESIAN_POINT('Origin',(0.,0.5,0.));
#362=CARTESIAN_POINT('Origin',(166.5,167.,0.));
#363=CARTESIAN_POINT('',(166.5,87.,9.79717439317883E-15));
#364=CARTESIAN_POINT('Origin',(166.5,167.,0.));
#365=CARTESIAN_POINT('',(167.,86.4999999999999,-9.8584067331362E-15));
#366=CARTESIAN_POINT('Origin',(167.,167.,0.));
#367=CARTESIAN_POINT('Origin',(167.,167.,-1.25982754567394E-15));
#368=CARTESIAN_POINT('',(167.,73.5,1.14504475720278E-14));
#369=CARTESIAN_POINT('Origin',(167.,167.,0.));
#370=CARTESIAN_POINT('Origin',(167.,167.,0.));
#371=CARTESIAN_POINT('',(80.9999999999999,86.9999999999999,9.79717439317883E-15));
#372=CARTESIAN_POINT('Origin',(80.9999999999999,167.,0.));
#373=CARTESIAN_POINT('Origin',(166.5,167.,0.));
#374=CARTESIAN_POINT('',(166.5,73.,-1.15116799119851E-14));
#375=CARTESIAN_POINT('Origin',(166.5,167.,0.));
#376=CARTESIAN_POINT('Origin',(81.,167.,0.));
#377=CARTESIAN_POINT('Origin',(0.,0.5,0.));
#378=CARTESIAN_POINT('',(80.,0.5,-9.79717439317883E-15));
#379=CARTESIAN_POINT('Origin',(0.,0.5,0.));
#380=CARTESIAN_POINT('',(80.5,0.,9.8584067331362E-15));
#381=CARTESIAN_POINT('Origin',(0.,0.,0.));
#382=CARTESIAN_POINT('Origin',(-1.10379270247236E-14,0.,-1.25982754567394E-15));
#383=CARTESIAN_POINT('',(93.5,0.,-1.14504475720278E-14));
#384=CARTESIAN_POINT('Origin',(0.,0.,0.));
#385=CARTESIAN_POINT('Origin',(0.,0.,0.));
#386=CARTESIAN_POINT('',(80.,86.,9.79717439317883E-15));
#387=CARTESIAN_POINT('Origin',(0.,86.,0.));
#388=CARTESIAN_POINT('Origin',(0.,0.5,0.));
#389=CARTESIAN_POINT('Origin',(81.,86.,0.));
#390=CARTESIAN_POINT('',(81.,245.,1.73194791841524E-14));
#391=CARTESIAN_POINT('Origin',(81.,167.,0.));
#392=CARTESIAN_POINT('',(-78.,86.,1.73194791841524E-14));
#393=CARTESIAN_POINT('Origin',(0.,86.,0.));
#394=CARTESIAN_POINT('Origin',(80.9999999999999,167.,0.));
#395=CARTESIAN_POINT('Origin',(-3.77702593176532E-15,86.,0.));
#396=UNCERTAINTY_MEASURE_WITH_UNIT(LENGTH_MEASURE(0.01),#400,
'DISTANCE_ACCURACY_VALUE',
'Maximum model space distance between geometric entities at asserted c
onnectivities');
#397=UNCERTAINTY_MEASURE_WITH_UNIT(LENGTH_MEASURE(1.E-6),#400,
'DISTANCE_ACCURACY_VALUE',
'Maximum model space distance between geometric entities at asserted c
onnectivities');
#398=(
GEOMETRIC_REPRESENTATION_CONTEXT(3)
GLOBAL_UNCERTAINTY_ASSIGNED_CONTEXT((#396))
GLOBAL_UNIT_ASSIGNED_CONTEXT((#400,#403,#401))
REPRESENTATION_CONTEXT('','3D')
);
#399=(
GEOMETRIC_REPRESENTATION_CONTEXT(3)
GLOBAL_UNCERTAINTY_ASSIGNED_CONTEXT((#397))
GLOBAL_UNIT_ASSIGNED_CONTEXT((#400,#403,#401))
REPRESENTATION_CONTEXT('','3D')
);
#400=(
LENGTH_UNIT()
NAMED_UNIT(*)
SI_UNIT(.MILLI.,.METRE.)
);
#401=(
NAMED_UNIT(*)
SI_UNIT($,.STERADIAN.)
SOLID_ANGLE_UNIT()
);
#402=DIMENSIONAL_EXPONENTS(0.,0.,0.,0.,0.,0.,0.);
#403=(
CONVERSION_BASED_UNIT('degree',#405)
NAMED_UNIT(#402)
PLANE_ANGLE_UNIT()
);
#404=(
NAMED_UNIT(*)
PLANE_ANGLE_UNIT()
SI_UNIT($,.RADIAN.)
);
#405=PLANE_ANGLE_MEASURE_WITH_UNIT(PLANE_ANGLE_MEASURE(0.01745329252),#404);
#406=SHAPE_DEFINITION_REPRESENTATION(#407,#408);
#407=PRODUCT_DEFINITION_SHAPE('',$,#410);
#408=SHAPE_REPRESENTATION('',(#190),#398);
#409=PRODUCT_DEFINITION_CONTEXT('part definition',#414,'design');
#410=PRODUCT_DEFINITION('EL501600','EL501600',#411,#409);
#411=PRODUCT_DEFINITION_FORMATION('',$,#416);
#412=PRODUCT_RELATED_PRODUCT_CATEGORY('EL501600','EL501600',(#416));
#413=APPLICATION_PROTOCOL_DEFINITION('international standard',
'automotive_design',2009,#414);
#414=APPLICATION_CONTEXT(
'Core Data for Automotive Mechanical Design Process');
#415=PRODUCT_CONTEXT('part definition',#414,'mechanical');
#416=PRODUCT('EL501600','EL501600',$,(#415));
#417=PRESENTATION_STYLE_ASSIGNMENT((#418));
#418=SURFACE_STYLE_USAGE(.BOTH.,#419);
#419=SURFACE_SIDE_STYLE('',(#420));
#420=SURFACE_STYLE_FILL_AREA(#421);
#421=FILL_AREA_STYLE('',(#422));
#422=FILL_AREA_STYLE_COLOUR('',#423);
#423=COLOUR_RGB('',0.8,0.8,0.8);
ENDSEC;
END-ISO-10303-21;
