ISO-10303-21;
HEADER;
/* Generated by software containing ST-Developer
 * from STEP Tools, Inc. (www.steptools.com) 
 */

FILE_DESCRIPTION(
/* description */ (''),
/* implementation_level */ '2;1');

FILE_NAME(
/* name */ 'C:\\Users\\Gabriele\\Desktop\\catalogo\\TR40\\TR40063D.stp',

/* time_stamp */ '2016-10-17T15:40:57+02:00',
/* author */ ('Gabriele'),
/* organization */ (''),
/* preprocessor_version */ 'ST-DEVELOPER v16.5',
/* originating_system */ 'Autodesk Inventor 2017',
/* authorisation */ '');

FILE_SCHEMA (('AUTOMOTIVE_DESIGN { 1 0 10303 214 3 1 1 }'));
ENDSEC;

DATA;
#10=MECHANICAL_DESIGN_GEOMETRIC_PRESENTATION_REPRESENTATION('',(#13),#465);
#11=SHAPE_REPRESENTATION_RELATIONSHIP('SRR','None',#474,#12);
#12=ADVANCED_BREP_SHAPE_REPRESENTATION('',(#14),#464);
#13=STYLED_ITEM('',(#483),#14);
#14=MANIFOLD_SOLID_BREP('Solido1',#200);
#15=B_SPLINE_CURVE_WITH_KNOTS('',3,(#333,#334,#335,#336,#337,#338,#339,
#340,#341,#342,#343,#344,#345,#346,#347,#348,#349,#350,#351,#352,#353,#354,
#355,#356,#357,#358,#359,#360,#361,#362,#363,#364,#365,#366,#367,#368,#369,
#370,#371,#372,#373,#374,#375,#376,#377,#378,#379,#380,#381,#382),
 .UNSPECIFIED.,.T.,.F.,(4,2,2,2,2,2,2,2,2,2,2,2,2,2,2,2,2,2,2,2,2,2,2,2,
4),(0.,0.298569948769388,0.597139897538777,1.19427979507755,1.78966594497969,
2.08735901993076,2.38505209488183,2.6827451698329,2.98043824478396,3.5758243946861,
4.17296429222488,4.47153424099426,4.77010418976365,5.06867413853304,5.36724408730243,
5.96438398484121,6.55977013474334,6.85746320969441,7.15515628464548,7.45284935959655,
7.75054243454761,8.34592858444975,8.94306848198853,9.24163843075791,9.5402083795273),
 .UNSPECIFIED.);
#16=B_SPLINE_CURVE_WITH_KNOTS('',3,(#393,#394,#395,#396,#397,#398,#399,
#400,#401,#402,#403,#404,#405,#406,#407,#408,#409,#410,#411,#412,#413,#414,
#415,#416,#417,#418,#419,#420,#421,#422,#423,#424,#425,#426,#427,#428,#429,
#430,#431,#432,#433,#434,#435,#436,#437,#438,#439,#440,#441,#442,#443,#444,
#445,#446,#447,#448,#449,#450,#451,#452,#453,#454,#455,#456,#457,#458),
 .UNSPECIFIED.,.T.,.F.,(4,2,2,2,2,2,2,2,2,2,2,2,2,2,2,2,2,2,2,2,2,2,2,2,
2,2,2,2,2,2,2,2,4),(0.,0.40702763929815,0.814055278596299,1.22108291789445,
1.6281105571926,2.03325674819213,2.43840293919166,2.84354913019119,3.24869532119072,
3.65384151219025,4.05898770318978,4.46413389418931,4.86928008518885,5.276307724487,
5.68333536378515,6.0903630030833,6.49739064238144,6.90441828167959,7.31144592097774,
7.71847356027589,8.12550119957404,8.53064739057357,8.9357935815731,9.34093977257264,
9.74608596357217,10.1512321545717,10.5563783455712,10.9615245365708,11.3666707275703,
11.7736983668684,12.1807260061666,12.5877536454647,12.9947812847629),
 .UNSPECIFIED.);
#17=PLANE('',#207);
#18=PLANE('',#214);
#19=PLANE('',#221);
#20=PLANE('',#228);
#21=PLANE('',#231);
#22=PLANE('',#232);
#23=CYLINDRICAL_SURFACE('',#205,31.5);
#24=CYLINDRICAL_SURFACE('',#212,31.5);
#25=CYLINDRICAL_SURFACE('',#219,16.);
#26=CYLINDRICAL_SURFACE('',#223,15.5);
#27=CYLINDRICAL_SURFACE('',#225,30.5);
#28=CYLINDRICAL_SURFACE('',#229,21.);
#29=CYLINDRICAL_SURFACE('',#230,37.5);
#30=FACE_BOUND('',#65,.T.);
#31=FACE_BOUND('',#67,.T.);
#32=FACE_BOUND('',#69,.T.);
#33=FACE_BOUND('',#71,.T.);
#34=FACE_BOUND('',#73,.T.);
#35=FACE_BOUND('',#75,.T.);
#36=FACE_BOUND('',#77,.T.);
#37=FACE_BOUND('',#79,.T.);
#38=FACE_BOUND('',#81,.T.);
#39=FACE_BOUND('',#83,.T.);
#40=FACE_BOUND('',#85,.T.);
#41=FACE_BOUND('',#86,.T.);
#42=FACE_BOUND('',#88,.T.);
#43=FACE_BOUND('',#90,.T.);
#44=FACE_BOUND('',#92,.T.);
#45=FACE_BOUND('',#93,.T.);
#46=FACE_BOUND('',#95,.T.);
#47=FACE_BOUND('',#97,.T.);
#48=FACE_OUTER_BOUND('',#64,.T.);
#49=FACE_OUTER_BOUND('',#66,.T.);
#50=FACE_OUTER_BOUND('',#68,.T.);
#51=FACE_OUTER_BOUND('',#70,.T.);
#52=FACE_OUTER_BOUND('',#72,.T.);
#53=FACE_OUTER_BOUND('',#74,.T.);
#54=FACE_OUTER_BOUND('',#76,.T.);
#55=FACE_OUTER_BOUND('',#78,.T.);
#56=FACE_OUTER_BOUND('',#80,.T.);
#57=FACE_OUTER_BOUND('',#82,.T.);
#58=FACE_OUTER_BOUND('',#84,.T.);
#59=FACE_OUTER_BOUND('',#87,.T.);
#60=FACE_OUTER_BOUND('',#89,.T.);
#61=FACE_OUTER_BOUND('',#91,.T.);
#62=FACE_OUTER_BOUND('',#94,.T.);
#63=FACE_OUTER_BOUND('',#96,.T.);
#64=EDGE_LOOP('',(#147));
#65=EDGE_LOOP('',(#148));
#66=EDGE_LOOP('',(#149));
#67=EDGE_LOOP('',(#150));
#68=EDGE_LOOP('',(#151));
#69=EDGE_LOOP('',(#152));
#70=EDGE_LOOP('',(#153));
#71=EDGE_LOOP('',(#154));
#72=EDGE_LOOP('',(#155));
#73=EDGE_LOOP('',(#156));
#74=EDGE_LOOP('',(#157));
#75=EDGE_LOOP('',(#158));
#76=EDGE_LOOP('',(#159));
#77=EDGE_LOOP('',(#160));
#78=EDGE_LOOP('',(#161));
#79=EDGE_LOOP('',(#162));
#80=EDGE_LOOP('',(#163));
#81=EDGE_LOOP('',(#164));
#82=EDGE_LOOP('',(#165));
#83=EDGE_LOOP('',(#166));
#84=EDGE_LOOP('',(#167));
#85=EDGE_LOOP('',(#168));
#86=EDGE_LOOP('',(#169));
#87=EDGE_LOOP('',(#170));
#88=EDGE_LOOP('',(#171));
#89=EDGE_LOOP('',(#172));
#90=EDGE_LOOP('',(#173));
#91=EDGE_LOOP('',(#174));
#92=EDGE_LOOP('',(#175));
#93=EDGE_LOOP('',(#176));
#94=EDGE_LOOP('',(#177));
#95=EDGE_LOOP('',(#178));
#96=EDGE_LOOP('',(#179));
#97=EDGE_LOOP('',(#180));
#98=CIRCLE('',#203,31.5);
#99=CIRCLE('',#204,32.);
#100=CIRCLE('',#206,31.5);
#101=CIRCLE('',#208,37.5);
#102=CIRCLE('',#210,31.5);
#103=CIRCLE('',#211,32.);
#104=CIRCLE('',#213,31.5);
#105=CIRCLE('',#215,37.5);
#106=CIRCLE('',#217,16.);
#107=CIRCLE('',#218,16.5);
#108=CIRCLE('',#220,16.);
#109=CIRCLE('',#222,21.);
#110=CIRCLE('',#224,15.5);
#111=CIRCLE('',#226,30.5);
#112=CIRCLE('',#227,30.5);
#113=VERTEX_POINT('',#299);
#114=VERTEX_POINT('',#301);
#115=VERTEX_POINT('',#304);
#116=VERTEX_POINT('',#307);
#117=VERTEX_POINT('',#310);
#118=VERTEX_POINT('',#312);
#119=VERTEX_POINT('',#315);
#120=VERTEX_POINT('',#318);
#121=VERTEX_POINT('',#321);
#122=VERTEX_POINT('',#323);
#123=VERTEX_POINT('',#326);
#124=VERTEX_POINT('',#329);
#125=VERTEX_POINT('',#332);
#126=VERTEX_POINT('',#383);
#127=VERTEX_POINT('',#386);
#128=VERTEX_POINT('',#388);
#129=VERTEX_POINT('',#392);
#130=EDGE_CURVE('',#113,#113,#98,.T.);
#131=EDGE_CURVE('',#114,#114,#99,.T.);
#132=EDGE_CURVE('',#115,#115,#100,.T.);
#133=EDGE_CURVE('',#116,#116,#101,.T.);
#134=EDGE_CURVE('',#117,#117,#102,.T.);
#135=EDGE_CURVE('',#118,#118,#103,.T.);
#136=EDGE_CURVE('',#119,#119,#104,.T.);
#137=EDGE_CURVE('',#120,#120,#105,.T.);
#138=EDGE_CURVE('',#121,#121,#106,.T.);
#139=EDGE_CURVE('',#122,#122,#107,.T.);
#140=EDGE_CURVE('',#123,#123,#108,.T.);
#141=EDGE_CURVE('',#124,#124,#109,.T.);
#142=EDGE_CURVE('',#125,#125,#15,.T.);
#143=EDGE_CURVE('',#126,#126,#110,.T.);
#144=EDGE_CURVE('',#127,#127,#111,.T.);
#145=EDGE_CURVE('',#128,#128,#112,.T.);
#146=EDGE_CURVE('',#129,#129,#16,.T.);
#147=ORIENTED_EDGE('',*,*,#130,.T.);
#148=ORIENTED_EDGE('',*,*,#131,.T.);
#149=ORIENTED_EDGE('',*,*,#132,.T.);
#150=ORIENTED_EDGE('',*,*,#130,.F.);
#151=ORIENTED_EDGE('',*,*,#133,.T.);
#152=ORIENTED_EDGE('',*,*,#131,.F.);
#153=ORIENTED_EDGE('',*,*,#134,.T.);
#154=ORIENTED_EDGE('',*,*,#135,.T.);
#155=ORIENTED_EDGE('',*,*,#136,.F.);
#156=ORIENTED_EDGE('',*,*,#134,.F.);
#157=ORIENTED_EDGE('',*,*,#137,.T.);
#158=ORIENTED_EDGE('',*,*,#135,.F.);
#159=ORIENTED_EDGE('',*,*,#138,.T.);
#160=ORIENTED_EDGE('',*,*,#139,.T.);
#161=ORIENTED_EDGE('',*,*,#140,.T.);
#162=ORIENTED_EDGE('',*,*,#138,.F.);
#163=ORIENTED_EDGE('',*,*,#141,.F.);
#164=ORIENTED_EDGE('',*,*,#139,.F.);
#165=ORIENTED_EDGE('',*,*,#142,.F.);
#166=ORIENTED_EDGE('',*,*,#143,.F.);
#167=ORIENTED_EDGE('',*,*,#144,.F.);
#168=ORIENTED_EDGE('',*,*,#142,.T.);
#169=ORIENTED_EDGE('',*,*,#145,.F.);
#170=ORIENTED_EDGE('',*,*,#140,.F.);
#171=ORIENTED_EDGE('',*,*,#143,.T.);
#172=ORIENTED_EDGE('',*,*,#141,.T.);
#173=ORIENTED_EDGE('',*,*,#146,.F.);
#174=ORIENTED_EDGE('',*,*,#133,.F.);
#175=ORIENTED_EDGE('',*,*,#137,.F.);
#176=ORIENTED_EDGE('',*,*,#146,.T.);
#177=ORIENTED_EDGE('',*,*,#136,.T.);
#178=ORIENTED_EDGE('',*,*,#145,.T.);
#179=ORIENTED_EDGE('',*,*,#132,.F.);
#180=ORIENTED_EDGE('',*,*,#144,.T.);
#181=TOROIDAL_SURFACE('',#202,32.,0.5);
#182=TOROIDAL_SURFACE('',#209,32.,0.5);
#183=TOROIDAL_SURFACE('',#216,16.5,0.5);
#184=ADVANCED_FACE('',(#48,#30),#181,.T.);
#185=ADVANCED_FACE('',(#49,#31),#23,.F.);
#186=ADVANCED_FACE('',(#50,#32),#17,.T.);
#187=ADVANCED_FACE('',(#51,#33),#182,.T.);
#188=ADVANCED_FACE('',(#52,#34),#24,.F.);
#189=ADVANCED_FACE('',(#53,#35),#18,.F.);
#190=ADVANCED_FACE('',(#54,#36),#183,.T.);
#191=ADVANCED_FACE('',(#55,#37),#25,.F.);
#192=ADVANCED_FACE('',(#56,#38),#19,.T.);
#193=ADVANCED_FACE('',(#57,#39),#26,.F.);
#194=ADVANCED_FACE('',(#58,#40,#41),#27,.F.);
#195=ADVANCED_FACE('',(#59,#42),#20,.T.);
#196=ADVANCED_FACE('',(#60,#43),#28,.T.);
#197=ADVANCED_FACE('',(#61,#44,#45),#29,.T.);
#198=ADVANCED_FACE('',(#62,#46),#21,.F.);
#199=ADVANCED_FACE('',(#63,#47),#22,.T.);
#200=CLOSED_SHELL('',(#184,#185,#186,#187,#188,#189,#190,#191,#192,#193,
#194,#195,#196,#197,#198,#199));
#201=AXIS2_PLACEMENT_3D('placement',#297,#233,#234);
#202=AXIS2_PLACEMENT_3D('',#298,#235,#236);
#203=AXIS2_PLACEMENT_3D('',#300,#237,#238);
#204=AXIS2_PLACEMENT_3D('',#302,#239,#240);
#205=AXIS2_PLACEMENT_3D('',#303,#241,#242);
#206=AXIS2_PLACEMENT_3D('',#305,#243,#244);
#207=AXIS2_PLACEMENT_3D('',#306,#245,#246);
#208=AXIS2_PLACEMENT_3D('',#308,#247,#248);
#209=AXIS2_PLACEMENT_3D('',#309,#249,#250);
#210=AXIS2_PLACEMENT_3D('',#311,#251,#252);
#211=AXIS2_PLACEMENT_3D('',#313,#253,#254);
#212=AXIS2_PLACEMENT_3D('',#314,#255,#256);
#213=AXIS2_PLACEMENT_3D('',#316,#257,#258);
#214=AXIS2_PLACEMENT_3D('',#317,#259,#260);
#215=AXIS2_PLACEMENT_3D('',#319,#261,#262);
#216=AXIS2_PLACEMENT_3D('',#320,#263,#264);
#217=AXIS2_PLACEMENT_3D('',#322,#265,#266);
#218=AXIS2_PLACEMENT_3D('',#324,#267,#268);
#219=AXIS2_PLACEMENT_3D('',#325,#269,#270);
#220=AXIS2_PLACEMENT_3D('',#327,#271,#272);
#221=AXIS2_PLACEMENT_3D('',#328,#273,#274);
#222=AXIS2_PLACEMENT_3D('',#330,#275,#276);
#223=AXIS2_PLACEMENT_3D('',#331,#277,#278);
#224=AXIS2_PLACEMENT_3D('',#384,#279,#280);
#225=AXIS2_PLACEMENT_3D('',#385,#281,#282);
#226=AXIS2_PLACEMENT_3D('',#387,#283,#284);
#227=AXIS2_PLACEMENT_3D('',#389,#285,#286);
#228=AXIS2_PLACEMENT_3D('',#390,#287,#288);
#229=AXIS2_PLACEMENT_3D('',#391,#289,#290);
#230=AXIS2_PLACEMENT_3D('',#459,#291,#292);
#231=AXIS2_PLACEMENT_3D('',#460,#293,#294);
#232=AXIS2_PLACEMENT_3D('',#461,#295,#296);
#233=DIRECTION('axis',(0.,0.,1.));
#234=DIRECTION('refdir',(1.,0.,0.));
#235=DIRECTION('center_axis',(0.,0.,-1.));
#236=DIRECTION('ref_axis',(-1.,0.,0.));
#237=DIRECTION('center_axis',(0.,0.,-1.));
#238=DIRECTION('ref_axis',(-1.,0.,0.));
#239=DIRECTION('center_axis',(0.,0.,1.));
#240=DIRECTION('ref_axis',(-1.,0.,0.));
#241=DIRECTION('center_axis',(0.,0.,-1.));
#242=DIRECTION('ref_axis',(-1.,0.,0.));
#243=DIRECTION('center_axis',(0.,0.,-1.));
#244=DIRECTION('ref_axis',(-1.,0.,0.));
#245=DIRECTION('center_axis',(0.,0.,1.));
#246=DIRECTION('ref_axis',(1.,0.,0.));
#247=DIRECTION('center_axis',(0.,0.,1.));
#248=DIRECTION('ref_axis',(-1.,0.,0.));
#249=DIRECTION('center_axis',(0.,0.,1.));
#250=DIRECTION('ref_axis',(1.,0.,0.));
#251=DIRECTION('center_axis',(0.,0.,1.));
#252=DIRECTION('ref_axis',(-1.,0.,0.));
#253=DIRECTION('center_axis',(0.,0.,-1.));
#254=DIRECTION('ref_axis',(-1.,0.,0.));
#255=DIRECTION('center_axis',(0.,0.,-1.));
#256=DIRECTION('ref_axis',(-1.,0.,0.));
#257=DIRECTION('center_axis',(0.,0.,-1.));
#258=DIRECTION('ref_axis',(-1.,0.,0.));
#259=DIRECTION('center_axis',(0.,0.,1.));
#260=DIRECTION('ref_axis',(1.,0.,0.));
#261=DIRECTION('center_axis',(0.,0.,-1.));
#262=DIRECTION('ref_axis',(-1.,0.,0.));
#263=DIRECTION('center_axis',(0.,-1.,0.));
#264=DIRECTION('ref_axis',(0.,0.,-1.));
#265=DIRECTION('center_axis',(0.,-1.,0.));
#266=DIRECTION('ref_axis',(-1.,0.,0.));
#267=DIRECTION('center_axis',(0.,1.,0.));
#268=DIRECTION('ref_axis',(-1.,0.,0.));
#269=DIRECTION('center_axis',(0.,-1.,0.));
#270=DIRECTION('ref_axis',(-1.,0.,0.));
#271=DIRECTION('center_axis',(0.,-1.,0.));
#272=DIRECTION('ref_axis',(-1.,0.,0.));
#273=DIRECTION('center_axis',(0.,1.,0.));
#274=DIRECTION('ref_axis',(0.,0.,1.));
#275=DIRECTION('center_axis',(0.,-1.,0.));
#276=DIRECTION('ref_axis',(1.,0.,0.));
#277=DIRECTION('center_axis',(0.,-1.,0.));
#278=DIRECTION('ref_axis',(-1.,0.,0.));
#279=DIRECTION('center_axis',(0.,-1.,0.));
#280=DIRECTION('ref_axis',(-1.,0.,0.));
#281=DIRECTION('center_axis',(0.,0.,1.));
#282=DIRECTION('ref_axis',(1.,0.,0.));
#283=DIRECTION('center_axis',(0.,0.,-1.));
#284=DIRECTION('ref_axis',(1.,0.,0.));
#285=DIRECTION('center_axis',(0.,0.,1.));
#286=DIRECTION('ref_axis',(1.,0.,0.));
#287=DIRECTION('center_axis',(0.,1.,0.));
#288=DIRECTION('ref_axis',(0.,0.,1.));
#289=DIRECTION('center_axis',(0.,-1.,0.));
#290=DIRECTION('ref_axis',(1.,0.,0.));
#291=DIRECTION('center_axis',(0.,0.,1.));
#292=DIRECTION('ref_axis',(-1.,0.,0.));
#293=DIRECTION('center_axis',(0.,0.,1.));
#294=DIRECTION('ref_axis',(1.,0.,0.));
#295=DIRECTION('center_axis',(0.,0.,1.));
#296=DIRECTION('ref_axis',(1.,0.,0.));
#297=CARTESIAN_POINT('',(0.,0.,0.));
#298=CARTESIAN_POINT('Origin',(0.,0.,70.5));
#299=CARTESIAN_POINT('',(31.5,-3.85763741731416E-15,70.5));
#300=CARTESIAN_POINT('Origin',(0.,0.,70.5));
#301=CARTESIAN_POINT('',(32.,3.91886975727153E-15,71.));
#302=CARTESIAN_POINT('Origin',(0.,0.,71.));
#303=CARTESIAN_POINT('Origin',(0.,0.,71.));
#304=CARTESIAN_POINT('',(31.5,3.85763741731416E-15,33.));
#305=CARTESIAN_POINT('Origin',(0.,0.,33.));
#306=CARTESIAN_POINT('Origin',(-3.54066983922288E-15,-7.89491928622334E-16,
71.));
#307=CARTESIAN_POINT('',(37.5,4.59242549680258E-15,71.));
#308=CARTESIAN_POINT('Origin',(0.,0.,71.));
#309=CARTESIAN_POINT('Origin',(0.,0.,-70.5));
#310=CARTESIAN_POINT('',(31.5,3.85763741731416E-15,-70.5));
#311=CARTESIAN_POINT('Origin',(0.,0.,-70.5));
#312=CARTESIAN_POINT('',(32.,-3.91886975727153E-15,-71.));
#313=CARTESIAN_POINT('Origin',(0.,0.,-71.));
#314=CARTESIAN_POINT('Origin',(0.,0.,-71.));
#315=CARTESIAN_POINT('',(31.5,3.85763741731416E-15,-33.));
#316=CARTESIAN_POINT('Origin',(0.,0.,-33.));
#317=CARTESIAN_POINT('Origin',(-3.54066983922288E-15,-7.89491928622334E-16,
-71.));
#318=CARTESIAN_POINT('',(37.5,4.59242549680258E-15,-71.));
#319=CARTESIAN_POINT('Origin',(0.,0.,-71.));
#320=CARTESIAN_POINT('Origin',(0.,54.5,0.));
#321=CARTESIAN_POINT('',(16.,54.5,1.95943487863577E-15));
#322=CARTESIAN_POINT('Origin',(0.,54.5,0.));
#323=CARTESIAN_POINT('',(16.5,55.,-2.02066721859313E-15));
#324=CARTESIAN_POINT('Origin',(0.,55.,0.));
#325=CARTESIAN_POINT('Origin',(0.,55.,0.));
#326=CARTESIAN_POINT('',(16.,33.,-1.95943487863577E-15));
#327=CARTESIAN_POINT('Origin',(0.,33.,0.));
#328=CARTESIAN_POINT('Origin',(9.19216697549299E-16,55.,0.));
#329=CARTESIAN_POINT('',(-21.,55.,2.57175827820944E-15));
#330=CARTESIAN_POINT('Origin',(0.,55.,0.));
#331=CARTESIAN_POINT('Origin',(0.,33.,0.));
#332=CARTESIAN_POINT('',(15.5,26.2678510731274,4.71844785465692E-15));
#333=CARTESIAN_POINT('Ctrl Pts',(15.5,26.2678510731274,4.71844785465692E-15));
#334=CARTESIAN_POINT('Ctrl Pts',(15.5,26.2678510731274,-0.995233162564623));
#335=CARTESIAN_POINT('Ctrl Pts',(15.4026446205003,26.3260748160649,-2.0167179355392));
#336=CARTESIAN_POINT('Ctrl Pts',(15.0009382115595,26.5570241000735,-4.03490589398627));
#337=CARTESIAN_POINT('Ctrl Pts',(14.6967557870322,26.7293523237616,-5.03168808186603));
#338=CARTESIAN_POINT('Ctrl Pts',(13.5031736040147,27.3628543620498,-7.88444823741052));
#339=CARTESIAN_POINT('Ctrl Pts',(12.3181853264588,27.939756985008,-9.60212489032418));
#340=CARTESIAN_POINT('Ctrl Pts',(9.60611330626362,28.9840969580396,-12.3141969105194));
#341=CARTESIAN_POINT('Ctrl Pts',(7.88710894471892,29.5265448553141,-13.5021014416936));
#342=CARTESIAN_POINT('Ctrl Pts',(5.029944441515,30.0980563226452,-14.697464781227));
#343=CARTESIAN_POINT('Ctrl Pts',(4.03165438448681,30.2493760610587,-15.0018304330681));
#344=CARTESIAN_POINT('Ctrl Pts',(2.01285709799972,30.4504087897799,-15.4031671978822));
#345=CARTESIAN_POINT('Ctrl Pts',(0.992310249836897,30.5,-15.5));
#346=CARTESIAN_POINT('Ctrl Pts',(-0.992310249836891,30.5,-15.5));
#347=CARTESIAN_POINT('Ctrl Pts',(-2.01285709799972,30.4504087897799,-15.4031671978822));
#348=CARTESIAN_POINT('Ctrl Pts',(-4.0316543844868,30.2493760610587,-15.0018304330681));
#349=CARTESIAN_POINT('Ctrl Pts',(-5.02994444151499,30.0980563226452,-14.697464781227));
#350=CARTESIAN_POINT('Ctrl Pts',(-7.88710894471891,29.5265448553141,-13.5021014416936));
#351=CARTESIAN_POINT('Ctrl Pts',(-9.60611330626362,28.9840969580396,-12.3141969105194));
#352=CARTESIAN_POINT('Ctrl Pts',(-12.3181853264588,27.939756985008,-9.60212489032418));
#353=CARTESIAN_POINT('Ctrl Pts',(-13.5031736040147,27.3628543620498,-7.88444823741052));
#354=CARTESIAN_POINT('Ctrl Pts',(-14.6967557870322,26.7293523237616,-5.03168808186603));
#355=CARTESIAN_POINT('Ctrl Pts',(-15.0009382115595,26.5570241000735,-4.03490589398627));
#356=CARTESIAN_POINT('Ctrl Pts',(-15.4026446205003,26.3260748160649,-2.0167179355392));
#357=CARTESIAN_POINT('Ctrl Pts',(-15.5,26.2678510731274,-0.995233162564625));
#358=CARTESIAN_POINT('Ctrl Pts',(-15.5,26.2678510731274,0.995233162564631));
#359=CARTESIAN_POINT('Ctrl Pts',(-15.4026446205003,26.3260748160649,2.01671793553921));
#360=CARTESIAN_POINT('Ctrl Pts',(-15.0009382115595,26.5570241000735,4.03490589398628));
#361=CARTESIAN_POINT('Ctrl Pts',(-14.6967557870322,26.7293523237616,5.03168808186603));
#362=CARTESIAN_POINT('Ctrl Pts',(-13.5031736040147,27.3628543620498,7.88444823741052));
#363=CARTESIAN_POINT('Ctrl Pts',(-12.3181853264588,27.939756985008,9.60212489032418));
#364=CARTESIAN_POINT('Ctrl Pts',(-9.60611330626362,28.9840969580396,12.3141969105194));
#365=CARTESIAN_POINT('Ctrl Pts',(-7.88710894471891,29.5265448553141,13.5021014416936));
#366=CARTESIAN_POINT('Ctrl Pts',(-5.029944441515,30.0980563226452,14.697464781227));
#367=CARTESIAN_POINT('Ctrl Pts',(-4.03165438448681,30.2493760610587,15.0018304330681));
#368=CARTESIAN_POINT('Ctrl Pts',(-2.01285709799973,30.4504087897799,15.4031671978822));
#369=CARTESIAN_POINT('Ctrl Pts',(-0.992310249836899,30.5,15.5));
#370=CARTESIAN_POINT('Ctrl Pts',(0.99231024983689,30.5,15.5));
#371=CARTESIAN_POINT('Ctrl Pts',(2.01285709799972,30.4504087897799,15.4031671978822));
#372=CARTESIAN_POINT('Ctrl Pts',(4.0316543844868,30.2493760610587,15.0018304330681));
#373=CARTESIAN_POINT('Ctrl Pts',(5.02994444151499,30.0980563226452,14.697464781227));
#374=CARTESIAN_POINT('Ctrl Pts',(7.8871089447189,29.5265448553141,13.5021014416936));
#375=CARTESIAN_POINT('Ctrl Pts',(9.60611330626361,28.9840969580396,12.3141969105194));
#376=CARTESIAN_POINT('Ctrl Pts',(12.3181853264588,27.939756985008,9.60212489032419));
#377=CARTESIAN_POINT('Ctrl Pts',(13.5031736040147,27.3628543620498,7.88444823741054));
#378=CARTESIAN_POINT('Ctrl Pts',(14.6967557870322,26.7293523237616,5.03168808186605));
#379=CARTESIAN_POINT('Ctrl Pts',(15.0009382115595,26.5570241000735,4.03490589398629));
#380=CARTESIAN_POINT('Ctrl Pts',(15.4026446205003,26.3260748160649,2.01671793553921));
#381=CARTESIAN_POINT('Ctrl Pts',(15.5,26.2678510731274,0.995233162564634));
#382=CARTESIAN_POINT('Ctrl Pts',(15.5,26.2678510731274,4.16333634234434E-15));
#383=CARTESIAN_POINT('',(15.5,33.,-1.8982025386784E-15));
#384=CARTESIAN_POINT('Origin',(0.,33.,0.));
#385=CARTESIAN_POINT('Origin',(0.,0.,-33.));
#386=CARTESIAN_POINT('',(-30.5,3.73517273739943E-15,33.));
#387=CARTESIAN_POINT('Origin',(0.,0.,33.));
#388=CARTESIAN_POINT('',(-30.5,3.73517273739943E-15,-33.));
#389=CARTESIAN_POINT('Origin',(0.,0.,-33.));
#390=CARTESIAN_POINT('Origin',(-1.55106502066776E-15,33.,2.31296463463574E-16));
#391=CARTESIAN_POINT('Origin',(0.,55.,0.));
#392=CARTESIAN_POINT('',(21.,31.068472765812,0.));
#393=CARTESIAN_POINT('Ctrl Pts',(21.,31.068472765812,0.));
#394=CARTESIAN_POINT('Ctrl Pts',(21.,31.068472765812,1.3567587976605));
#395=CARTESIAN_POINT('Ctrl Pts',(20.866503019305,31.1600114453272,2.74585374419946));
#396=CARTESIAN_POINT('Ctrl Pts',(20.3190875129167,31.5197072243682,5.48501088305351));
#397=CARTESIAN_POINT('Ctrl Pts',(19.9054299313778,31.7871190976641,6.83522302591913));
#398=CARTESIAN_POINT('Ctrl Pts',(18.8262667340656,32.4379202049456,9.40841183262989));
#399=CARTESIAN_POINT('Ctrl Pts',(18.159892664471,32.8209313245111,10.633994182805));
#400=CARTESIAN_POINT('Ctrl Pts',(16.63034567058,33.6218208505031,12.895547176736));
#401=CARTESIAN_POINT('Ctrl Pts',(15.7669022207275,34.0389995337627,13.9315825891075));
#402=CARTESIAN_POINT('Ctrl Pts',(13.9358243882692,34.8286129798854,15.7626604215658));
#403=CARTESIAN_POINT('Ctrl Pts',(12.9019429042001,35.23079846795,16.6254456905748));
#404=CARTESIAN_POINT('Ctrl Pts',(10.63968348381,35.9786940664541,18.1566161661833));
#405=CARTESIAN_POINT('Ctrl Pts',(9.41121024315894,36.3238809020714,18.8251161071021));
#406=CARTESIAN_POINT('Ctrl Pts',(6.83179431384854,36.8960945346975,19.9068448936148));
#407=CARTESIAN_POINT('Ctrl Pts',(5.47829534012347,37.1232924461456,20.3209435984592));
#408=CARTESIAN_POINT('Ctrl Pts',(2.73767174567824,37.4253352061795,20.8676213783038));
#409=CARTESIAN_POINT('Ctrl Pts',(1.35048730333177,37.5,21.));
#410=CARTESIAN_POINT('Ctrl Pts',(-1.35048730333177,37.5,21.));
#411=CARTESIAN_POINT('Ctrl Pts',(-2.73767174567823,37.4253352061795,20.8676213783038));
#412=CARTESIAN_POINT('Ctrl Pts',(-5.47829534012347,37.1232924461456,20.3209435984592));
#413=CARTESIAN_POINT('Ctrl Pts',(-6.83179431384853,36.8960945346975,19.9068448936148));
#414=CARTESIAN_POINT('Ctrl Pts',(-9.41121024315894,36.3238809020714,18.8251161071021));
#415=CARTESIAN_POINT('Ctrl Pts',(-10.63968348381,35.9786940664541,18.1566161661833));
#416=CARTESIAN_POINT('Ctrl Pts',(-12.9019429042001,35.23079846795,16.6254456905748));
#417=CARTESIAN_POINT('Ctrl Pts',(-13.9358243882692,34.8286129798854,15.7626604215658));
#418=CARTESIAN_POINT('Ctrl Pts',(-15.7669022207275,34.0389995337627,13.9315825891075));
#419=CARTESIAN_POINT('Ctrl Pts',(-16.63034567058,33.6218208505031,12.895547176736));
#420=CARTESIAN_POINT('Ctrl Pts',(-18.159892664471,32.8209313245111,10.633994182805));
#421=CARTESIAN_POINT('Ctrl Pts',(-18.8262667340656,32.4379202049456,9.40841183262989));
#422=CARTESIAN_POINT('Ctrl Pts',(-19.9054299313778,31.7871190976641,6.83522302591912));
#423=CARTESIAN_POINT('Ctrl Pts',(-20.3190875129167,31.5197072243682,5.4850108830535));
#424=CARTESIAN_POINT('Ctrl Pts',(-20.866503019305,31.1600114453272,2.74585374419945));
#425=CARTESIAN_POINT('Ctrl Pts',(-21.,31.068472765812,1.3567587976605));
#426=CARTESIAN_POINT('Ctrl Pts',(-21.,31.068472765812,-1.3567587976605));
#427=CARTESIAN_POINT('Ctrl Pts',(-20.866503019305,31.1600114453272,-2.74585374419945));
#428=CARTESIAN_POINT('Ctrl Pts',(-20.3190875129167,31.5197072243682,-5.4850108830535));
#429=CARTESIAN_POINT('Ctrl Pts',(-19.9054299313778,31.7871190976641,-6.83522302591912));
#430=CARTESIAN_POINT('Ctrl Pts',(-18.8262667340656,32.4379202049456,-9.40841183262989));
#431=CARTESIAN_POINT('Ctrl Pts',(-18.159892664471,32.8209313245111,-10.633994182805));
#432=CARTESIAN_POINT('Ctrl Pts',(-16.63034567058,33.6218208505031,-12.895547176736));
#433=CARTESIAN_POINT('Ctrl Pts',(-15.7669022207275,34.0389995337627,-13.9315825891075));
#434=CARTESIAN_POINT('Ctrl Pts',(-13.9358243882692,34.8286129798854,-15.7626604215658));
#435=CARTESIAN_POINT('Ctrl Pts',(-12.9019429042001,35.23079846795,-16.6254456905748));
#436=CARTESIAN_POINT('Ctrl Pts',(-10.63968348381,35.9786940664541,-18.1566161661833));
#437=CARTESIAN_POINT('Ctrl Pts',(-9.41121024315894,36.3238809020714,-18.8251161071021));
#438=CARTESIAN_POINT('Ctrl Pts',(-6.83179431384853,36.8960945346975,-19.9068448936148));
#439=CARTESIAN_POINT('Ctrl Pts',(-5.47829534012347,37.1232924461456,-20.3209435984592));
#440=CARTESIAN_POINT('Ctrl Pts',(-2.73767174567823,37.4253352061795,-20.8676213783038));
#441=CARTESIAN_POINT('Ctrl Pts',(-1.35048730333177,37.5,-21.));
#442=CARTESIAN_POINT('Ctrl Pts',(1.35048730333177,37.5,-21.));
#443=CARTESIAN_POINT('Ctrl Pts',(2.73767174567823,37.4253352061795,-20.8676213783038));
#444=CARTESIAN_POINT('Ctrl Pts',(5.47829534012346,37.1232924461456,-20.3209435984592));
#445=CARTESIAN_POINT('Ctrl Pts',(6.83179431384853,36.8960945346975,-19.9068448936148));
#446=CARTESIAN_POINT('Ctrl Pts',(9.41121024315893,36.3238809020714,-18.8251161071021));
#447=CARTESIAN_POINT('Ctrl Pts',(10.63968348381,35.9786940664541,-18.1566161661833));
#448=CARTESIAN_POINT('Ctrl Pts',(12.9019429042001,35.23079846795,-16.6254456905748));
#449=CARTESIAN_POINT('Ctrl Pts',(13.9358243882692,34.8286129798854,-15.7626604215658));
#450=CARTESIAN_POINT('Ctrl Pts',(15.7669022207275,34.0389995337627,-13.9315825891075));
#451=CARTESIAN_POINT('Ctrl Pts',(16.63034567058,33.6218208505031,-12.895547176736));
#452=CARTESIAN_POINT('Ctrl Pts',(18.159892664471,32.8209313245111,-10.633994182805));
#453=CARTESIAN_POINT('Ctrl Pts',(18.8262667340656,32.4379202049456,-9.4084118326299));
#454=CARTESIAN_POINT('Ctrl Pts',(19.9054299313778,31.7871190976641,-6.83522302591913));
#455=CARTESIAN_POINT('Ctrl Pts',(20.3190875129167,31.5197072243682,-5.48501088305351));
#456=CARTESIAN_POINT('Ctrl Pts',(20.866503019305,31.1600114453272,-2.74585374419946));
#457=CARTESIAN_POINT('Ctrl Pts',(21.,31.068472765812,-1.3567587976605));
#458=CARTESIAN_POINT('Ctrl Pts',(21.,31.068472765812,0.));
#459=CARTESIAN_POINT('Origin',(0.,0.,0.));
#460=CARTESIAN_POINT('Origin',(-3.14108381557023E-15,-4.69935671799008E-16,
-33.));
#461=CARTESIAN_POINT('Origin',(-3.14108381557023E-15,-4.69935671799008E-16,
33.));
#462=UNCERTAINTY_MEASURE_WITH_UNIT(LENGTH_MEASURE(0.01),#466,
'DISTANCE_ACCURACY_VALUE',
'Maximum model space distance between geometric entities at asserted c
onnectivities');
#463=UNCERTAINTY_MEASURE_WITH_UNIT(LENGTH_MEASURE(1.E-6),#466,
'DISTANCE_ACCURACY_VALUE',
'Maximum model space distance between geometric entities at asserted c
onnectivities');
#464=(
GEOMETRIC_REPRESENTATION_CONTEXT(3)
GLOBAL_UNCERTAINTY_ASSIGNED_CONTEXT((#462))
GLOBAL_UNIT_ASSIGNED_CONTEXT((#466,#469,#467))
REPRESENTATION_CONTEXT('','3D')
);
#465=(
GEOMETRIC_REPRESENTATION_CONTEXT(3)
GLOBAL_UNCERTAINTY_ASSIGNED_CONTEXT((#463))
GLOBAL_UNIT_ASSIGNED_CONTEXT((#466,#469,#467))
REPRESENTATION_CONTEXT('','3D')
);
#466=(
LENGTH_UNIT()
NAMED_UNIT(*)
SI_UNIT(.MILLI.,.METRE.)
);
#467=(
NAMED_UNIT(*)
SI_UNIT($,.STERADIAN.)
SOLID_ANGLE_UNIT()
);
#468=DIMENSIONAL_EXPONENTS(0.,0.,0.,0.,0.,0.,0.);
#469=(
CONVERSION_BASED_UNIT('degree',#471)
NAMED_UNIT(#468)
PLANE_ANGLE_UNIT()
);
#470=(
NAMED_UNIT(*)
PLANE_ANGLE_UNIT()
SI_UNIT($,.RADIAN.)
);
#471=PLANE_ANGLE_MEASURE_WITH_UNIT(PLANE_ANGLE_MEASURE(0.01745329252),#470);
#472=SHAPE_DEFINITION_REPRESENTATION(#473,#474);
#473=PRODUCT_DEFINITION_SHAPE('',$,#476);
#474=SHAPE_REPRESENTATION('',(#201),#464);
#475=PRODUCT_DEFINITION_CONTEXT('part definition',#480,'design');
#476=PRODUCT_DEFINITION('TR40063D','TR40063D',#477,#475);
#477=PRODUCT_DEFINITION_FORMATION('',$,#482);
#478=PRODUCT_RELATED_PRODUCT_CATEGORY('TR40063D','TR40063D',(#482));
#479=APPLICATION_PROTOCOL_DEFINITION('international standard',
'automotive_design',2009,#480);
#480=APPLICATION_CONTEXT(
'Core Data for Automotive Mechanical Design Process');
#481=PRODUCT_CONTEXT('part definition',#480,'mechanical');
#482=PRODUCT('TR40063D','TR40063D',$,(#481));
#483=PRESENTATION_STYLE_ASSIGNMENT((#484));
#484=SURFACE_STYLE_USAGE(.BOTH.,#485);
#485=SURFACE_SIDE_STYLE('',(#486));
#486=SURFACE_STYLE_FILL_AREA(#487);
#487=FILL_AREA_STYLE('',(#488));
#488=FILL_AREA_STYLE_COLOUR('',#489);
#489=COLOUR_RGB('',0.8,0.8,0.8);
ENDSEC;
END-ISO-10303-21;
