ISO-10303-21;
HEADER;
/* Generated by software containing ST-Developer
 * from STEP Tools, Inc. (www.steptools.com) 
 */

FILE_DESCRIPTION(
/* description */ (''),
/* implementation_level */ '2;1');

FILE_NAME(
/* name */ 'C:\\Users\\mdebiase\\Desktop\\baricentro\\RIV160110.ipt.st
p',
/* time_stamp */ '2014-05-27T15:25:12+02:00',
/* author */ ('bfaro'),
/* organization */ (''),
/* preprocessor_version */ 'ST-DEVELOPER v15.2',
/* originating_system */ 'Autodesk Inventor 2014',
/* authorisation */ '');

FILE_SCHEMA (('AUTOMOTIVE_DESIGN { 1 0 10303 214 3 1 1 }'));
ENDSEC;

DATA;
#10=SHAPE_REPRESENTATION_RELATIONSHIP('SRR','None',#269,#11);
#11=ADVANCED_BREP_SHAPE_REPRESENTATION($,(#146),#260);
#12=STYLED_ITEM($,(#277),#146);
#13=CONICAL_SURFACE($,#155,74.625,21.1325657669782);
#14=CONICAL_SURFACE($,#157,62.8278524283803,27.1817706718349);
#15=CONICAL_SURFACE($,#170,71.1557829871592,0.666199970183144);
#16=CYLINDRICAL_SURFACE($,#153,68.25);
#17=CYLINDRICAL_SURFACE($,#162,54.);
#18=CYLINDRICAL_SURFACE($,#166,55.);
#19=CYLINDRICAL_SURFACE($,#171,81.);
#20=TOROIDAL_SURFACE($,#151,65.25,2.99999999999999);
#21=FACE_BOUND($,#46,.T.);
#22=FACE_BOUND($,#48,.T.);
#23=FACE_BOUND($,#50,.T.);
#24=FACE_BOUND($,#52,.T.);
#25=FACE_BOUND($,#54,.T.);
#26=FACE_BOUND($,#55,.T.);
#27=FACE_BOUND($,#56,.T.);
#28=FACE_BOUND($,#58,.T.);
#29=FACE_BOUND($,#60,.T.);
#30=FACE_BOUND($,#62,.T.);
#31=FACE_BOUND($,#63,.T.);
#32=FACE_BOUND($,#64,.T.);
#33=FACE_BOUND($,#66,.T.);
#34=FACE_BOUND($,#68,.T.);
#35=FACE_OUTER_BOUND($,#45,.T.);
#36=FACE_OUTER_BOUND($,#47,.T.);
#37=FACE_OUTER_BOUND($,#49,.T.);
#38=FACE_OUTER_BOUND($,#51,.T.);
#39=FACE_OUTER_BOUND($,#53,.T.);
#40=FACE_OUTER_BOUND($,#57,.T.);
#41=FACE_OUTER_BOUND($,#59,.T.);
#42=FACE_OUTER_BOUND($,#61,.T.);
#43=FACE_OUTER_BOUND($,#65,.T.);
#44=FACE_OUTER_BOUND($,#67,.T.);
#45=EDGE_LOOP($,(#105));
#46=EDGE_LOOP($,(#106));
#47=EDGE_LOOP($,(#107));
#48=EDGE_LOOP($,(#108));
#49=EDGE_LOOP($,(#109));
#50=EDGE_LOOP($,(#110));
#51=EDGE_LOOP($,(#111));
#52=EDGE_LOOP($,(#112));
#53=EDGE_LOOP($,(#113));
#54=EDGE_LOOP($,(#114));
#55=EDGE_LOOP($,(#115));
#56=EDGE_LOOP($,(#116));
#57=EDGE_LOOP($,(#117));
#58=EDGE_LOOP($,(#118));
#59=EDGE_LOOP($,(#119));
#60=EDGE_LOOP($,(#120));
#61=EDGE_LOOP($,(#121));
#62=EDGE_LOOP($,(#122));
#63=EDGE_LOOP($,(#123));
#64=EDGE_LOOP($,(#124));
#65=EDGE_LOOP($,(#125));
#66=EDGE_LOOP($,(#126));
#67=EDGE_LOOP($,(#127));
#68=EDGE_LOOP($,(#128));
#69=CIRCLE($,#149,65.25);
#70=CIRCLE($,#150,55.);
#71=CIRCLE($,#152,68.25);
#72=CIRCLE($,#154,68.25);
#73=CIRCLE($,#156,81.);
#74=CIRCLE($,#158,55.);
#75=CIRCLE($,#159,70.6557048567606);
#76=CIRCLE($,#161,54.);
#77=CIRCLE($,#163,54.);
#78=CIRCLE($,#165,55.);
#79=CIRCLE($,#168,71.6558611175579);
#80=CIRCLE($,#169,81.);
#81=VERTEX_POINT($,#224);
#82=VERTEX_POINT($,#226);
#83=VERTEX_POINT($,#229);
#84=VERTEX_POINT($,#232);
#85=VERTEX_POINT($,#235);
#86=VERTEX_POINT($,#238);
#87=VERTEX_POINT($,#240);
#88=VERTEX_POINT($,#243);
#89=VERTEX_POINT($,#246);
#90=VERTEX_POINT($,#249);
#91=VERTEX_POINT($,#253);
#92=VERTEX_POINT($,#255);
#93=EDGE_CURVE($,#81,#81,#69,.T.);
#94=EDGE_CURVE($,#82,#82,#70,.T.);
#95=EDGE_CURVE($,#83,#83,#71,.T.);
#96=EDGE_CURVE($,#84,#84,#72,.T.);
#97=EDGE_CURVE($,#85,#85,#73,.T.);
#98=EDGE_CURVE($,#86,#86,#74,.T.);
#99=EDGE_CURVE($,#87,#87,#75,.T.);
#100=EDGE_CURVE($,#88,#88,#76,.T.);
#101=EDGE_CURVE($,#89,#89,#77,.T.);
#102=EDGE_CURVE($,#90,#90,#78,.T.);
#103=EDGE_CURVE($,#91,#91,#79,.T.);
#104=EDGE_CURVE($,#92,#92,#80,.T.);
#105=ORIENTED_EDGE($,*,*,#93,.F.);
#106=ORIENTED_EDGE($,*,*,#94,.T.);
#107=ORIENTED_EDGE($,*,*,#95,.F.);
#108=ORIENTED_EDGE($,*,*,#93,.T.);
#109=ORIENTED_EDGE($,*,*,#96,.F.);
#110=ORIENTED_EDGE($,*,*,#95,.T.);
#111=ORIENTED_EDGE($,*,*,#97,.F.);
#112=ORIENTED_EDGE($,*,*,#96,.T.);
#113=ORIENTED_EDGE($,*,*,#98,.F.);
#114=ORIENTED_EDGE($,*,*,#99,.T.);
#115=ORIENTED_EDGE($,*,*,#100,.F.);
#116=ORIENTED_EDGE($,*,*,#98,.T.);
#117=ORIENTED_EDGE($,*,*,#101,.F.);
#118=ORIENTED_EDGE($,*,*,#100,.T.);
#119=ORIENTED_EDGE($,*,*,#102,.F.);
#120=ORIENTED_EDGE($,*,*,#101,.T.);
#121=ORIENTED_EDGE($,*,*,#94,.F.);
#122=ORIENTED_EDGE($,*,*,#102,.T.);
#123=ORIENTED_EDGE($,*,*,#103,.F.);
#124=ORIENTED_EDGE($,*,*,#104,.T.);
#125=ORIENTED_EDGE($,*,*,#99,.F.);
#126=ORIENTED_EDGE($,*,*,#103,.T.);
#127=ORIENTED_EDGE($,*,*,#104,.F.);
#128=ORIENTED_EDGE($,*,*,#97,.T.);
#129=PLANE($,#148);
#130=PLANE($,#160);
#131=PLANE($,#164);
#132=PLANE($,#167);
#133=ADVANCED_FACE($,(#35,#21),#129,.T.);
#134=ADVANCED_FACE($,(#36,#22),#20,.T.);
#135=ADVANCED_FACE($,(#37,#23),#16,.T.);
#136=ADVANCED_FACE($,(#38,#24),#13,.T.);
#137=ADVANCED_FACE($,(#39,#25),#14,.F.);
#138=ADVANCED_FACE($,(#26,#27),#130,.T.);
#139=ADVANCED_FACE($,(#40,#28),#17,.F.);
#140=ADVANCED_FACE($,(#41,#29),#131,.T.);
#141=ADVANCED_FACE($,(#42,#30),#18,.F.);
#142=ADVANCED_FACE($,(#31,#32),#132,.T.);
#143=ADVANCED_FACE($,(#43,#33),#15,.F.);
#144=ADVANCED_FACE($,(#44,#34),#19,.T.);
#145=CLOSED_SHELL($,(#133,#134,#135,#136,#137,#138,#139,#140,#141,#142,
#143,#144));
#146=MANIFOLD_SOLID_BREP('Solido1',#145);
#147=AXIS2_PLACEMENT_3D('placement',#222,#172,#173);
#148=AXIS2_PLACEMENT_3D($,#223,#174,#175);
#149=AXIS2_PLACEMENT_3D($,#225,#176,#177);
#150=AXIS2_PLACEMENT_3D($,#227,#178,#179);
#151=AXIS2_PLACEMENT_3D($,#228,#180,#181);
#152=AXIS2_PLACEMENT_3D($,#230,#182,#183);
#153=AXIS2_PLACEMENT_3D($,#231,#184,#185);
#154=AXIS2_PLACEMENT_3D($,#233,#186,#187);
#155=AXIS2_PLACEMENT_3D($,#234,#188,#189);
#156=AXIS2_PLACEMENT_3D($,#236,#190,#191);
#157=AXIS2_PLACEMENT_3D($,#237,#192,#193);
#158=AXIS2_PLACEMENT_3D($,#239,#194,#195);
#159=AXIS2_PLACEMENT_3D($,#241,#196,#197);
#160=AXIS2_PLACEMENT_3D($,#242,#198,#199);
#161=AXIS2_PLACEMENT_3D($,#244,#200,#201);
#162=AXIS2_PLACEMENT_3D($,#245,#202,#203);
#163=AXIS2_PLACEMENT_3D($,#247,#204,#205);
#164=AXIS2_PLACEMENT_3D($,#248,#206,#207);
#165=AXIS2_PLACEMENT_3D($,#250,#208,#209);
#166=AXIS2_PLACEMENT_3D($,#251,#210,#211);
#167=AXIS2_PLACEMENT_3D($,#252,#212,#213);
#168=AXIS2_PLACEMENT_3D($,#254,#214,#215);
#169=AXIS2_PLACEMENT_3D($,#256,#216,#217);
#170=AXIS2_PLACEMENT_3D($,#257,#218,#219);
#171=AXIS2_PLACEMENT_3D($,#258,#220,#221);
#172=DIRECTION('axis',(0.,0.,1.));
#173=DIRECTION('refdir',(1.,0.,0.));
#174=DIRECTION('center_axis',(0.,0.,-1.));
#175=DIRECTION('ref_axis',(-1.,0.,0.));
#176=DIRECTION('center_axis',(0.,0.,1.));
#177=DIRECTION('ref_axis',(0.,-1.,0.));
#178=DIRECTION('center_axis',(0.,0.,1.));
#179=DIRECTION('ref_axis',(0.,-1.,0.));
#180=DIRECTION('center_axis',(0.,0.,1.));
#181=DIRECTION('ref_axis',(1.,0.,0.));
#182=DIRECTION('center_axis',(0.,0.,1.));
#183=DIRECTION('ref_axis',(0.,-1.,0.));
#184=DIRECTION('center_axis',(0.,0.,1.));
#185=DIRECTION('ref_axis',(0.,-1.,0.));
#186=DIRECTION('center_axis',(0.,0.,1.));
#187=DIRECTION('ref_axis',(0.,-1.,0.));
#188=DIRECTION('center_axis',(0.,0.,1.));
#189=DIRECTION('ref_axis',(0.,-1.,0.));
#190=DIRECTION('center_axis',(0.,0.,1.));
#191=DIRECTION('ref_axis',(0.,-1.,0.));
#192=DIRECTION('center_axis',(0.,0.,1.));
#193=DIRECTION('ref_axis',(0.,-1.,0.));
#194=DIRECTION('center_axis',(0.,0.,1.));
#195=DIRECTION('ref_axis',(0.,-1.,0.));
#196=DIRECTION('center_axis',(0.,0.,1.));
#197=DIRECTION('ref_axis',(0.,-1.,0.));
#198=DIRECTION('center_axis',(0.,0.,1.));
#199=DIRECTION('ref_axis',(1.,0.,0.));
#200=DIRECTION('center_axis',(0.,0.,1.));
#201=DIRECTION('ref_axis',(0.,-1.,0.));
#202=DIRECTION('center_axis',(0.,0.,1.));
#203=DIRECTION('ref_axis',(0.,-1.,0.));
#204=DIRECTION('center_axis',(0.,0.,1.));
#205=DIRECTION('ref_axis',(0.,-1.,0.));
#206=DIRECTION('center_axis',(0.,0.,-1.));
#207=DIRECTION('ref_axis',(-1.,0.,0.));
#208=DIRECTION('center_axis',(0.,0.,1.));
#209=DIRECTION('ref_axis',(0.,-1.,0.));
#210=DIRECTION('center_axis',(0.,0.,1.));
#211=DIRECTION('ref_axis',(0.,-1.,0.));
#212=DIRECTION('center_axis',(0.,0.,1.));
#213=DIRECTION('ref_axis',(1.,0.,0.));
#214=DIRECTION('center_axis',(0.,0.,1.));
#215=DIRECTION('ref_axis',(0.,-1.,0.));
#216=DIRECTION('center_axis',(0.,0.,1.));
#217=DIRECTION('ref_axis',(0.,-1.,0.));
#218=DIRECTION('center_axis',(0.,0.,1.));
#219=DIRECTION('ref_axis',(0.,-1.,0.));
#220=DIRECTION('center_axis',(0.,0.,1.));
#221=DIRECTION('ref_axis',(0.,-1.,0.));
#222=CARTESIAN_POINT('',(0.,0.,0.));
#223=CARTESIAN_POINT('Origin',(0.,-60.125,-90.123963));
#224=CARTESIAN_POINT('',(0.,-65.25,-90.123963));
#225=CARTESIAN_POINT('Origin',(0.,0.,-90.123963));
#226=CARTESIAN_POINT('',(0.,-55.,-90.123963));
#227=CARTESIAN_POINT('Origin',(0.,0.,-90.123963));
#228=CARTESIAN_POINT('Origin',(0.,0.,-87.123963));
#229=CARTESIAN_POINT('',(0.,-68.25,-87.123963));
#230=CARTESIAN_POINT('Origin',(0.,0.,-87.123963));
#231=CARTESIAN_POINT('Origin',(0.,0.,-55.623963));
#232=CARTESIAN_POINT('',(0.,-68.25,-24.123963));
#233=CARTESIAN_POINT('Origin',(0.,0.,-24.123963));
#234=CARTESIAN_POINT('Origin',(0.,0.,-7.6306822142835));
#235=CARTESIAN_POINT('',(0.,-81.,8.86259857143299));
#236=CARTESIAN_POINT('Origin',(0.,0.,8.86259857143299));
#237=CARTESIAN_POINT('Origin',(0.,0.,-6.3806822142835));
#238=CARTESIAN_POINT('',(0.,-55.,-21.623963));
#239=CARTESIAN_POINT('Origin',(0.,0.,-21.623963));
#240=CARTESIAN_POINT('',(0.,-70.6557048567606,8.86259857143301));
#241=CARTESIAN_POINT('Origin',(0.,0.,8.86259857143301));
#242=CARTESIAN_POINT('Origin',(0.,-54.5,-21.623963));
#243=CARTESIAN_POINT('',(0.,-54.,-21.623963));
#244=CARTESIAN_POINT('Origin',(0.,0.,-21.623963));
#245=CARTESIAN_POINT('Origin',(0.,0.,-25.373963));
#246=CARTESIAN_POINT('',(0.,-54.,-29.123963));
#247=CARTESIAN_POINT('Origin',(0.,0.,-29.123963));
#248=CARTESIAN_POINT('Origin',(0.,-54.5,-29.123963));
#249=CARTESIAN_POINT('',(0.,-55.,-29.123963));
#250=CARTESIAN_POINT('Origin',(0.,0.,-29.123963));
#251=CARTESIAN_POINT('Origin',(0.,0.,-59.623963));
#252=CARTESIAN_POINT('Origin',(0.,-76.327930558779,94.876037));
#253=CARTESIAN_POINT('',(0.,-71.6558611175579,94.876037));
#254=CARTESIAN_POINT('Origin',(0.,0.,94.876037));
#255=CARTESIAN_POINT('',(0.,-81.,94.876037));
#256=CARTESIAN_POINT('Origin',(0.,0.,94.876037));
#257=CARTESIAN_POINT('Origin',(0.,0.,51.8693177857165));
#258=CARTESIAN_POINT('Origin',(0.,0.,51.8693177857165));
#259=UNCERTAINTY_MEASURE_WITH_UNIT(LENGTH_MEASURE(0.01),#261,
'DISTANCE_ACCURACY_VALUE',
'Maximum model space distance between geometric entities at asserted c
onnectivities');
#260=(
GEOMETRIC_REPRESENTATION_CONTEXT(3)
GLOBAL_UNCERTAINTY_ASSIGNED_CONTEXT((#259))
GLOBAL_UNIT_ASSIGNED_CONTEXT((#261,#264,#262))
REPRESENTATION_CONTEXT('','3D')
);
#261=(
LENGTH_UNIT()
NAMED_UNIT(*)
SI_UNIT(.MILLI.,.METRE.)
);
#262=(
NAMED_UNIT(*)
SI_UNIT($,.STERADIAN.)
SOLID_ANGLE_UNIT()
);
#263=DIMENSIONAL_EXPONENTS(0.,0.,0.,0.,0.,0.,0.);
#264=(
CONVERSION_BASED_UNIT('degree',#266)
NAMED_UNIT(#263)
PLANE_ANGLE_UNIT()
);
#265=(
NAMED_UNIT(*)
PLANE_ANGLE_UNIT()
SI_UNIT($,.RADIAN.)
);
#266=PLANE_ANGLE_MEASURE_WITH_UNIT(PLANE_ANGLE_MEASURE(0.01745329252),#265);
#267=SHAPE_DEFINITION_REPRESENTATION(#268,#269);
#268=PRODUCT_DEFINITION_SHAPE('',$,#271);
#269=SHAPE_REPRESENTATION('',(#147),#260);
#270=PRODUCT_DEFINITION_CONTEXT('3D Mechanical Parts',#274,'design');
#271=PRODUCT_DEFINITION('RIV160110','RIV160110',#272,#270);
#272=PRODUCT_DEFINITION_FORMATION('',$,#276);
#273=APPLICATION_PROTOCOL_DEFINITION('international standard',
'automotive_design',2009,#274);
#274=APPLICATION_CONTEXT(
'Core Data for Automotive Mechanical Design Process');
#275=PRODUCT_CONTEXT('3D Mechanical Parts',#274,'mechanical');
#276=PRODUCT('RIV160110','RIV160110',$,(#275));
#277=PRESENTATION_STYLE_ASSIGNMENT((#278));
#278=SURFACE_STYLE_USAGE(.BOTH.,#279);
#279=SURFACE_SIDE_STYLE($,(#280));
#280=SURFACE_STYLE_FILL_AREA(#281);
#281=FILL_AREA_STYLE($,(#282));
#282=FILL_AREA_STYLE_COLOUR($,#283);
#283=COLOUR_RGB('',0.509803921568627,0.509803921568627,0.588235294117647);
ENDSEC;
END-ISO-10303-21;
