ISO-10303-21;
HEADER;
/* Generated by software containing ST-Developer
 * from STEP Tools, Inc. (www.steptools.com) 
 */

FILE_DESCRIPTION(
/* description */ (''),
/* implementation_level */ '2;1');

FILE_NAME(
/* name */ 'C:\\Users\\mdebiase\\Desktop\\baricentro\\DIV025020.ipt.st
p',
/* time_stamp */ '2014-05-27T15:23:16+02:00',
/* author */ ('bfaro'),
/* organization */ (''),
/* preprocessor_version */ 'ST-DEVELOPER v15.2',
/* originating_system */ 'Autodesk Inventor 2014',
/* authorisation */ '');

FILE_SCHEMA (('AUTOMOTIVE_DESIGN { 1 0 10303 214 3 1 1 }'));
ENDSEC;

DATA;
#10=SHAPE_REPRESENTATION_RELATIONSHIP('SRR','None',#169,#11);
#11=ADVANCED_BREP_SHAPE_REPRESENTATION($,(#91),#160);
#12=STYLED_ITEM($,(#177),#91);
#13=PLANE($,#104);
#14=PLANE($,#105);
#15=PLANE($,#106);
#16=CYLINDRICAL_SURFACE($,#96,10.);
#17=CYLINDRICAL_SURFACE($,#99,8.7000000000001);
#18=CYLINDRICAL_SURFACE($,#101,12.5);
#19=FACE_BOUND($,#34,.T.);
#20=FACE_BOUND($,#36,.T.);
#21=FACE_BOUND($,#38,.T.);
#22=FACE_BOUND($,#40,.T.);
#23=FACE_BOUND($,#42,.T.);
#24=FACE_BOUND($,#44,.T.);
#25=FACE_BOUND($,#46,.T.);
#26=FACE_OUTER_BOUND($,#33,.T.);
#27=FACE_OUTER_BOUND($,#35,.T.);
#28=FACE_OUTER_BOUND($,#37,.T.);
#29=FACE_OUTER_BOUND($,#39,.T.);
#30=FACE_OUTER_BOUND($,#41,.T.);
#31=FACE_OUTER_BOUND($,#43,.T.);
#32=FACE_OUTER_BOUND($,#45,.T.);
#33=EDGE_LOOP($,(#68));
#34=EDGE_LOOP($,(#69));
#35=EDGE_LOOP($,(#70));
#36=EDGE_LOOP($,(#71));
#37=EDGE_LOOP($,(#72));
#38=EDGE_LOOP($,(#73));
#39=EDGE_LOOP($,(#74));
#40=EDGE_LOOP($,(#75));
#41=EDGE_LOOP($,(#76));
#42=EDGE_LOOP($,(#77));
#43=EDGE_LOOP($,(#78));
#44=EDGE_LOOP($,(#79));
#45=EDGE_LOOP($,(#80));
#46=EDGE_LOOP($,(#81));
#47=CIRCLE($,#94,9.90000000000004);
#48=CIRCLE($,#95,8.7);
#49=CIRCLE($,#97,10.);
#50=CIRCLE($,#98,10.);
#51=CIRCLE($,#100,8.7);
#52=CIRCLE($,#102,12.5);
#53=CIRCLE($,#103,12.5);
#54=VERTEX_POINT($,#139);
#55=VERTEX_POINT($,#141);
#56=VERTEX_POINT($,#144);
#57=VERTEX_POINT($,#146);
#58=VERTEX_POINT($,#149);
#59=VERTEX_POINT($,#152);
#60=VERTEX_POINT($,#154);
#61=EDGE_CURVE($,#54,#54,#47,.T.);
#62=EDGE_CURVE($,#55,#55,#48,.T.);
#63=EDGE_CURVE($,#56,#56,#49,.T.);
#64=EDGE_CURVE($,#57,#57,#50,.T.);
#65=EDGE_CURVE($,#58,#58,#51,.T.);
#66=EDGE_CURVE($,#59,#59,#52,.T.);
#67=EDGE_CURVE($,#60,#60,#53,.T.);
#68=ORIENTED_EDGE($,*,*,#61,.F.);
#69=ORIENTED_EDGE($,*,*,#62,.F.);
#70=ORIENTED_EDGE($,*,*,#63,.T.);
#71=ORIENTED_EDGE($,*,*,#64,.F.);
#72=ORIENTED_EDGE($,*,*,#62,.T.);
#73=ORIENTED_EDGE($,*,*,#65,.F.);
#74=ORIENTED_EDGE($,*,*,#66,.F.);
#75=ORIENTED_EDGE($,*,*,#67,.T.);
#76=ORIENTED_EDGE($,*,*,#63,.F.);
#77=ORIENTED_EDGE($,*,*,#65,.T.);
#78=ORIENTED_EDGE($,*,*,#67,.F.);
#79=ORIENTED_EDGE($,*,*,#64,.T.);
#80=ORIENTED_EDGE($,*,*,#66,.T.);
#81=ORIENTED_EDGE($,*,*,#61,.T.);
#82=CONICAL_SURFACE($,#93,1.03950000000001,45.0000000000015);
#83=ADVANCED_FACE($,(#26,#19),#82,.F.);
#84=ADVANCED_FACE($,(#27,#20),#16,.F.);
#85=ADVANCED_FACE($,(#28,#21),#17,.F.);
#86=ADVANCED_FACE($,(#29,#22),#18,.T.);
#87=ADVANCED_FACE($,(#30,#23),#13,.T.);
#88=ADVANCED_FACE($,(#31,#24),#14,.T.);
#89=ADVANCED_FACE($,(#32,#25),#15,.T.);
#90=CLOSED_SHELL($,(#83,#84,#85,#86,#87,#88,#89));
#91=MANIFOLD_SOLID_BREP('Solido1',#90);
#92=AXIS2_PLACEMENT_3D('placement',#137,#107,#108);
#93=AXIS2_PLACEMENT_3D($,#138,#109,#110);
#94=AXIS2_PLACEMENT_3D($,#140,#111,#112);
#95=AXIS2_PLACEMENT_3D($,#142,#113,#114);
#96=AXIS2_PLACEMENT_3D($,#143,#115,#116);
#97=AXIS2_PLACEMENT_3D($,#145,#117,#118);
#98=AXIS2_PLACEMENT_3D($,#147,#119,#120);
#99=AXIS2_PLACEMENT_3D($,#148,#121,#122);
#100=AXIS2_PLACEMENT_3D($,#150,#123,#124);
#101=AXIS2_PLACEMENT_3D($,#151,#125,#126);
#102=AXIS2_PLACEMENT_3D($,#153,#127,#128);
#103=AXIS2_PLACEMENT_3D($,#155,#129,#130);
#104=AXIS2_PLACEMENT_3D($,#156,#131,#132);
#105=AXIS2_PLACEMENT_3D($,#157,#133,#134);
#106=AXIS2_PLACEMENT_3D($,#158,#135,#136);
#107=DIRECTION('axis',(0.,0.,1.));
#108=DIRECTION('refdir',(1.,0.,0.));
#109=DIRECTION('center_axis',(-1.,1.2748328403314E-016,-9.40876548676151E-018));
#110=DIRECTION('ref_axis',(1.08666476876936E-016,0.809016994374954,-0.587785252292464));
#111=DIRECTION('center_axis',(1.,0.,0.));
#112=DIRECTION('ref_axis',(0.,1.,0.));
#113=DIRECTION('center_axis',(-1.,0.,0.));
#114=DIRECTION('ref_axis',(0.,1.,0.));
#115=DIRECTION('center_axis',(-1.,0.,0.));
#116=DIRECTION('ref_axis',(0.,1.,0.));
#117=DIRECTION('center_axis',(-1.,0.,0.));
#118=DIRECTION('ref_axis',(0.,1.,0.));
#119=DIRECTION('center_axis',(-1.,0.,0.));
#120=DIRECTION('ref_axis',(0.,1.,0.));
#121=DIRECTION('center_axis',(-1.,0.,0.));
#122=DIRECTION('ref_axis',(0.,1.,0.));
#123=DIRECTION('center_axis',(-1.,0.,0.));
#124=DIRECTION('ref_axis',(0.,1.,0.));
#125=DIRECTION('center_axis',(1.,0.,0.));
#126=DIRECTION('ref_axis',(0.,-1.,0.));
#127=DIRECTION('center_axis',(-1.,0.,0.));
#128=DIRECTION('ref_axis',(0.,-1.,0.));
#129=DIRECTION('center_axis',(-1.,0.,0.));
#130=DIRECTION('ref_axis',(0.,-1.,0.));
#131=DIRECTION('center_axis',(1.,0.,0.));
#132=DIRECTION('ref_axis',(0.,0.,-1.));
#133=DIRECTION('center_axis',(1.,0.,0.));
#134=DIRECTION('ref_axis',(0.,0.,-1.));
#135=DIRECTION('center_axis',(-1.,0.,0.));
#136=DIRECTION('ref_axis',(0.,0.,1.));
#137=CARTESIAN_POINT('',(0.,0.,0.));
#138=CARTESIAN_POINT('Origin',(-0.228242000000395,-1.32994397716857E-007,
2.92391977296802E-008));
#139=CARTESIAN_POINT('',(-9.08874200000001,-9.9000001329944,2.92392066114644E-008));
#140=CARTESIAN_POINT('Origin',(-9.088742,-1.32994397716857E-007,2.92392066114644E-008));
#141=CARTESIAN_POINT('',(-7.88874200000002,-8.70000013299441,2.92392066114644E-008));
#142=CARTESIAN_POINT('Origin',(-7.88874200000001,-1.32994397716857E-007,
2.92392066114644E-008));
#143=CARTESIAN_POINT('Origin',(1.911258,-1.32994388835073E-007,2.92392066114644E-008));
#144=CARTESIAN_POINT('',(-6.088742,-10.0000001329944,2.92392066114644E-008));
#145=CARTESIAN_POINT('Origin',(-6.088742,-1.32994397716857E-007,2.92392066114644E-008));
#146=CARTESIAN_POINT('',(9.911258,-10.0000001329944,2.92392066114644E-008));
#147=CARTESIAN_POINT('Origin',(9.911258,-1.32994397716857E-007,2.92392066114644E-008));
#148=CARTESIAN_POINT('Origin',(-6.98874200000002,-1.32994397716857E-007,
2.92392066114644E-008));
#149=CARTESIAN_POINT('',(-6.08874200000001,-8.70000013299441,2.92392066114644E-008));
#150=CARTESIAN_POINT('Origin',(-6.08874200000001,-1.32994397716857E-007,
2.92392066114644E-008));
#151=CARTESIAN_POINT('Origin',(-9.088742,-1.32994397716857E-007,2.92392066114644E-008));
#152=CARTESIAN_POINT('',(-9.088742,12.4999998670056,2.92392066114644E-008));
#153=CARTESIAN_POINT('Origin',(-9.088742,-1.32994397716857E-007,2.92392066114644E-008));
#154=CARTESIAN_POINT('',(9.911258,12.4999998670056,2.92392066114644E-008));
#155=CARTESIAN_POINT('Origin',(9.911258,-1.32994397716857E-007,2.92392066114644E-008));
#156=CARTESIAN_POINT('Origin',(-6.088742,9.34999986700571,2.92392066114644E-008));
#157=CARTESIAN_POINT('Origin',(9.911258,-12.5000001329944,2.92392066114644E-008));
#158=CARTESIAN_POINT('Origin',(-9.088742,-1.32994397716857E-007,2.92391089118382E-008));
#159=UNCERTAINTY_MEASURE_WITH_UNIT(LENGTH_MEASURE(0.01),#161,
'DISTANCE_ACCURACY_VALUE',
'Maximum model space distance between geometric entities at asserted c
onnectivities');
#160=(
GEOMETRIC_REPRESENTATION_CONTEXT(3)
GLOBAL_UNCERTAINTY_ASSIGNED_CONTEXT((#159))
GLOBAL_UNIT_ASSIGNED_CONTEXT((#161,#164,#162))
REPRESENTATION_CONTEXT('','3D')
);
#161=(
LENGTH_UNIT()
NAMED_UNIT(*)
SI_UNIT(.MILLI.,.METRE.)
);
#162=(
NAMED_UNIT(*)
SI_UNIT($,.STERADIAN.)
SOLID_ANGLE_UNIT()
);
#163=DIMENSIONAL_EXPONENTS(0.,0.,0.,0.,0.,0.,0.);
#164=(
CONVERSION_BASED_UNIT('degree',#166)
NAMED_UNIT(#163)
PLANE_ANGLE_UNIT()
);
#165=(
NAMED_UNIT(*)
PLANE_ANGLE_UNIT()
SI_UNIT($,.RADIAN.)
);
#166=PLANE_ANGLE_MEASURE_WITH_UNIT(PLANE_ANGLE_MEASURE(0.01745329252),#165);
#167=SHAPE_DEFINITION_REPRESENTATION(#168,#169);
#168=PRODUCT_DEFINITION_SHAPE('',$,#171);
#169=SHAPE_REPRESENTATION('',(#92),#160);
#170=PRODUCT_DEFINITION_CONTEXT('3D Mechanical Parts',#174,'design');
#171=PRODUCT_DEFINITION('DIV025020','DIV025020',#172,#170);
#172=PRODUCT_DEFINITION_FORMATION('',$,#176);
#173=APPLICATION_PROTOCOL_DEFINITION('international standard',
'automotive_design',2009,#174);
#174=APPLICATION_CONTEXT(
'Core Data for Automotive Mechanical Design Process');
#175=PRODUCT_CONTEXT('3D Mechanical Parts',#174,'mechanical');
#176=PRODUCT('DIV025020','DIV025020',$,(#175));
#177=PRESENTATION_STYLE_ASSIGNMENT((#178));
#178=SURFACE_STYLE_USAGE(.BOTH.,#179);
#179=SURFACE_SIDE_STYLE($,(#180));
#180=SURFACE_STYLE_FILL_AREA(#181);
#181=FILL_AREA_STYLE($,(#182));
#182=FILL_AREA_STYLE_COLOUR($,#183);
#183=COLOUR_RGB('',0.509803921568627,0.509803921568627,0.588235294117647);
ENDSEC;
END-ISO-10303-21;
