ISO-10303-21;
HEADER;
/* Generated by software containing ST-Developer
 * from STEP Tools, Inc. (www.steptools.com) 
 */

FILE_DESCRIPTION(
/* description */ (''),
/* implementation_level */ '2;1');

FILE_NAME(
/* name */ 'C:\\Users\\Gabriele\\Desktop\\catalogo\\EY50\\EY502000.stp',

/* time_stamp */ '2016-10-17T15:05:18+02:00',
/* author */ ('Gabriele'),
/* organization */ (''),
/* preprocessor_version */ 'ST-DEVELOPER v16.5',
/* originating_system */ 'Autodesk Inventor 2017',
/* authorisation */ '');

FILE_SCHEMA (('AUTOMOTIVE_DESIGN { 1 0 10303 214 3 1 1 }'));
ENDSEC;

DATA;
#10=MECHANICAL_DESIGN_GEOMETRIC_PRESENTATION_REPRESENTATION('',(#13),#332);
#11=SHAPE_REPRESENTATION_RELATIONSHIP('SRR','None',#341,#12);
#12=ADVANCED_BREP_SHAPE_REPRESENTATION('',(#14),#331);
#13=STYLED_ITEM('',(#350),#14);
#14=MANIFOLD_SOLID_BREP('Solido1',#171);
#15=(
BOUNDED_SURFACE()
B_SPLINE_SURFACE(2,2,((#302,#303,#304),(#305,#306,#307),(#308,#309,#310),
(#311,#312,#313),(#314,#315,#316),(#317,#318,#319),(#320,#321,#322),(#323,
#324,#325),(#326,#327,#328)),.UNSPECIFIED.,.F.,.F.,.F.)
B_SPLINE_SURFACE_WITH_KNOTS((3,2,2,2,3),(3,3),(-2.89056936902346,-1.44528468451173,
0.,1.44528468451173,2.89056936902346),(0.,0.785398163397448),
 .UNSPECIFIED.)
GEOMETRIC_REPRESENTATION_ITEM()
RATIONAL_B_SPLINE_SURFACE(((1.,0.923879532511287,1.),(0.750060786644774,
0.692965808920422,0.750060786644774),(1.,0.923879532511287,1.),(0.750060786644774,
0.692965808920421,0.750060786644774),(1.,0.923879532511287,1.),(0.750060786644774,
0.692965808920421,0.750060786644774),(1.,0.923879532511287,1.),(0.750060786644774,
0.692965808920422,0.750060786644774),(1.,0.923879532511287,1.)))
REPRESENTATION_ITEM('')
SURFACE()
);
#16=ELLIPSE('',#184,125.557495233918,116.);
#17=CYLINDRICAL_SURFACE('',#178,100.);
#18=CYLINDRICAL_SURFACE('',#182,116.);
#19=CYLINDRICAL_SURFACE('',#190,100.);
#20=CYLINDRICAL_SURFACE('',#194,116.);
#21=PLANE('',#176);
#22=PLANE('',#188);
#23=PLANE('',#199);
#24=PLANE('',#200);
#25=FACE_BOUND('',#53,.T.);
#26=FACE_BOUND('',#55,.T.);
#27=FACE_BOUND('',#57,.T.);
#28=FACE_BOUND('',#59,.T.);
#29=FACE_BOUND('',#61,.T.);
#30=FACE_BOUND('',#63,.T.);
#31=FACE_BOUND('',#65,.T.);
#32=FACE_BOUND('',#67,.T.);
#33=FACE_BOUND('',#69,.T.);
#34=FACE_BOUND('',#71,.T.);
#35=FACE_BOUND('',#73,.T.);
#36=FACE_BOUND('',#75,.T.);
#37=FACE_BOUND('',#77,.T.);
#38=FACE_OUTER_BOUND('',#52,.T.);
#39=FACE_OUTER_BOUND('',#54,.T.);
#40=FACE_OUTER_BOUND('',#56,.T.);
#41=FACE_OUTER_BOUND('',#58,.T.);
#42=FACE_OUTER_BOUND('',#60,.T.);
#43=FACE_OUTER_BOUND('',#62,.T.);
#44=FACE_OUTER_BOUND('',#64,.T.);
#45=FACE_OUTER_BOUND('',#66,.T.);
#46=FACE_OUTER_BOUND('',#68,.T.);
#47=FACE_OUTER_BOUND('',#70,.T.);
#48=FACE_OUTER_BOUND('',#72,.T.);
#49=FACE_OUTER_BOUND('',#74,.T.);
#50=FACE_OUTER_BOUND('',#76,.T.);
#51=FACE_OUTER_BOUND('',#78,.T.);
#52=EDGE_LOOP('',(#122));
#53=EDGE_LOOP('',(#123));
#54=EDGE_LOOP('',(#124));
#55=EDGE_LOOP('',(#125));
#56=EDGE_LOOP('',(#126));
#57=EDGE_LOOP('',(#127));
#58=EDGE_LOOP('',(#128));
#59=EDGE_LOOP('',(#129));
#60=EDGE_LOOP('',(#130,#131));
#61=EDGE_LOOP('',(#132));
#62=EDGE_LOOP('',(#133));
#63=EDGE_LOOP('',(#134));
#64=EDGE_LOOP('',(#135));
#65=EDGE_LOOP('',(#136));
#66=EDGE_LOOP('',(#137));
#67=EDGE_LOOP('',(#138));
#68=EDGE_LOOP('',(#139));
#69=EDGE_LOOP('',(#140));
#70=EDGE_LOOP('',(#141,#142));
#71=EDGE_LOOP('',(#143));
#72=EDGE_LOOP('',(#144));
#73=EDGE_LOOP('',(#145));
#74=EDGE_LOOP('',(#146));
#75=EDGE_LOOP('',(#147));
#76=EDGE_LOOP('',(#148));
#77=EDGE_LOOP('',(#149));
#78=EDGE_LOOP('',(#150,#151));
#79=CIRCLE('',#174,100.);
#80=CIRCLE('',#175,100.5);
#81=CIRCLE('',#177,115.5);
#82=CIRCLE('',#179,100.);
#83=CIRCLE('',#181,116.);
#84=CIRCLE('',#183,116.);
#85=CIRCLE('',#186,100.);
#86=CIRCLE('',#187,100.5);
#87=CIRCLE('',#189,115.5);
#88=CIRCLE('',#191,100.);
#89=CIRCLE('',#193,116.);
#90=CIRCLE('',#195,116.);
#91=CIRCLE('',#197,97.);
#92=CIRCLE('',#198,97.);
#93=VERTEX_POINT('',#261);
#94=VERTEX_POINT('',#263);
#95=VERTEX_POINT('',#266);
#96=VERTEX_POINT('',#269);
#97=VERTEX_POINT('',#272);
#98=VERTEX_POINT('',#275);
#99=VERTEX_POINT('',#276);
#100=VERTEX_POINT('',#280);
#101=VERTEX_POINT('',#282);
#102=VERTEX_POINT('',#285);
#103=VERTEX_POINT('',#288);
#104=VERTEX_POINT('',#291);
#105=VERTEX_POINT('',#296);
#106=VERTEX_POINT('',#298);
#107=EDGE_CURVE('',#93,#93,#79,.T.);
#108=EDGE_CURVE('',#94,#94,#80,.T.);
#109=EDGE_CURVE('',#95,#95,#81,.T.);
#110=EDGE_CURVE('',#96,#96,#82,.T.);
#111=EDGE_CURVE('',#97,#97,#83,.T.);
#112=EDGE_CURVE('',#98,#99,#84,.T.);
#113=EDGE_CURVE('',#98,#99,#16,.T.);
#114=EDGE_CURVE('',#100,#100,#85,.T.);
#115=EDGE_CURVE('',#101,#101,#86,.T.);
#116=EDGE_CURVE('',#102,#102,#87,.T.);
#117=EDGE_CURVE('',#103,#103,#88,.T.);
#118=EDGE_CURVE('',#104,#104,#89,.T.);
#119=EDGE_CURVE('',#98,#99,#90,.T.);
#120=EDGE_CURVE('',#105,#105,#91,.T.);
#121=EDGE_CURVE('',#106,#106,#92,.T.);
#122=ORIENTED_EDGE('',*,*,#107,.T.);
#123=ORIENTED_EDGE('',*,*,#108,.T.);
#124=ORIENTED_EDGE('',*,*,#109,.F.);
#125=ORIENTED_EDGE('',*,*,#108,.F.);
#126=ORIENTED_EDGE('',*,*,#110,.T.);
#127=ORIENTED_EDGE('',*,*,#107,.F.);
#128=ORIENTED_EDGE('',*,*,#111,.T.);
#129=ORIENTED_EDGE('',*,*,#109,.T.);
#130=ORIENTED_EDGE('',*,*,#112,.F.);
#131=ORIENTED_EDGE('',*,*,#113,.T.);
#132=ORIENTED_EDGE('',*,*,#111,.F.);
#133=ORIENTED_EDGE('',*,*,#114,.T.);
#134=ORIENTED_EDGE('',*,*,#115,.T.);
#135=ORIENTED_EDGE('',*,*,#116,.F.);
#136=ORIENTED_EDGE('',*,*,#115,.F.);
#137=ORIENTED_EDGE('',*,*,#117,.F.);
#138=ORIENTED_EDGE('',*,*,#114,.F.);
#139=ORIENTED_EDGE('',*,*,#118,.T.);
#140=ORIENTED_EDGE('',*,*,#116,.T.);
#141=ORIENTED_EDGE('',*,*,#119,.T.);
#142=ORIENTED_EDGE('',*,*,#113,.F.);
#143=ORIENTED_EDGE('',*,*,#118,.F.);
#144=ORIENTED_EDGE('',*,*,#120,.F.);
#145=ORIENTED_EDGE('',*,*,#121,.F.);
#146=ORIENTED_EDGE('',*,*,#117,.T.);
#147=ORIENTED_EDGE('',*,*,#120,.T.);
#148=ORIENTED_EDGE('',*,*,#110,.F.);
#149=ORIENTED_EDGE('',*,*,#121,.T.);
#150=ORIENTED_EDGE('',*,*,#112,.T.);
#151=ORIENTED_EDGE('',*,*,#119,.F.);
#152=TOROIDAL_SURFACE('',#173,100.5,0.5);
#153=TOROIDAL_SURFACE('',#180,115.5,0.5);
#154=TOROIDAL_SURFACE('',#185,100.5,0.5);
#155=TOROIDAL_SURFACE('',#192,115.5,0.5);
#156=TOROIDAL_SURFACE('',#196,112.364414979368,97.);
#157=ADVANCED_FACE('',(#38,#25),#152,.T.);
#158=ADVANCED_FACE('',(#39,#26),#21,.F.);
#159=ADVANCED_FACE('',(#40,#27),#17,.F.);
#160=ADVANCED_FACE('',(#41,#28),#153,.T.);
#161=ADVANCED_FACE('',(#42,#29),#18,.T.);
#162=ADVANCED_FACE('',(#43,#30),#154,.T.);
#163=ADVANCED_FACE('',(#44,#31),#22,.T.);
#164=ADVANCED_FACE('',(#45,#32),#19,.F.);
#165=ADVANCED_FACE('',(#46,#33),#155,.T.);
#166=ADVANCED_FACE('',(#47,#34),#20,.T.);
#167=ADVANCED_FACE('',(#48,#35),#156,.F.);
#168=ADVANCED_FACE('',(#49,#36),#23,.T.);
#169=ADVANCED_FACE('',(#50,#37),#24,.F.);
#170=ADVANCED_FACE('',(#51),#15,.F.);
#171=CLOSED_SHELL('',(#157,#158,#159,#160,#161,#162,#163,#164,#165,#166,
#167,#168,#169,#170));
#172=AXIS2_PLACEMENT_3D('placement',#259,#201,#202);
#173=AXIS2_PLACEMENT_3D('',#260,#203,#204);
#174=AXIS2_PLACEMENT_3D('',#262,#205,#206);
#175=AXIS2_PLACEMENT_3D('',#264,#207,#208);
#176=AXIS2_PLACEMENT_3D('',#265,#209,#210);
#177=AXIS2_PLACEMENT_3D('',#267,#211,#212);
#178=AXIS2_PLACEMENT_3D('',#268,#213,#214);
#179=AXIS2_PLACEMENT_3D('',#270,#215,#216);
#180=AXIS2_PLACEMENT_3D('',#271,#217,#218);
#181=AXIS2_PLACEMENT_3D('',#273,#219,#220);
#182=AXIS2_PLACEMENT_3D('',#274,#221,#222);
#183=AXIS2_PLACEMENT_3D('',#277,#223,#224);
#184=AXIS2_PLACEMENT_3D('',#278,#225,#226);
#185=AXIS2_PLACEMENT_3D('',#279,#227,#228);
#186=AXIS2_PLACEMENT_3D('',#281,#229,#230);
#187=AXIS2_PLACEMENT_3D('',#283,#231,#232);
#188=AXIS2_PLACEMENT_3D('',#284,#233,#234);
#189=AXIS2_PLACEMENT_3D('',#286,#235,#236);
#190=AXIS2_PLACEMENT_3D('',#287,#237,#238);
#191=AXIS2_PLACEMENT_3D('',#289,#239,#240);
#192=AXIS2_PLACEMENT_3D('',#290,#241,#242);
#193=AXIS2_PLACEMENT_3D('',#292,#243,#244);
#194=AXIS2_PLACEMENT_3D('',#293,#245,#246);
#195=AXIS2_PLACEMENT_3D('',#294,#247,#248);
#196=AXIS2_PLACEMENT_3D('',#295,#249,#250);
#197=AXIS2_PLACEMENT_3D('',#297,#251,#252);
#198=AXIS2_PLACEMENT_3D('',#299,#253,#254);
#199=AXIS2_PLACEMENT_3D('',#300,#255,#256);
#200=AXIS2_PLACEMENT_3D('',#301,#257,#258);
#201=DIRECTION('axis',(0.,0.,1.));
#202=DIRECTION('refdir',(1.,0.,0.));
#203=DIRECTION('center_axis',(0.,1.,0.));
#204=DIRECTION('ref_axis',(0.,0.,1.));
#205=DIRECTION('center_axis',(0.,1.,0.));
#206=DIRECTION('ref_axis',(-1.,0.,0.));
#207=DIRECTION('center_axis',(0.,-1.,0.));
#208=DIRECTION('ref_axis',(-1.,0.,0.));
#209=DIRECTION('center_axis',(0.,1.,0.));
#210=DIRECTION('ref_axis',(0.,0.,1.));
#211=DIRECTION('center_axis',(0.,1.,0.));
#212=DIRECTION('ref_axis',(1.,0.,0.));
#213=DIRECTION('center_axis',(0.,1.,0.));
#214=DIRECTION('ref_axis',(-1.,0.,0.));
#215=DIRECTION('center_axis',(0.,1.,0.));
#216=DIRECTION('ref_axis',(-1.,0.,0.));
#217=DIRECTION('center_axis',(0.,-1.,0.));
#218=DIRECTION('ref_axis',(0.,0.,-1.));
#219=DIRECTION('center_axis',(0.,-1.,0.));
#220=DIRECTION('ref_axis',(1.,0.,0.));
#221=DIRECTION('center_axis',(-5.02698993766884E-17,1.,0.));
#222=DIRECTION('ref_axis',(1.,5.02698993766884E-17,0.));
#223=DIRECTION('center_axis',(0.,1.,0.));
#224=DIRECTION('ref_axis',(1.,0.,0.));
#225=DIRECTION('center_axis',(-0.38268343236509,-0.923879532511287,0.));
#226=DIRECTION('ref_axis',(0.923879532511287,-0.38268343236509,0.));
#227=DIRECTION('center_axis',(-0.707106781186547,-0.707106781186548,0.));
#228=DIRECTION('ref_axis',(0.,0.,1.));
#229=DIRECTION('center_axis',(-0.707106781186547,-0.707106781186548,0.));
#230=DIRECTION('ref_axis',(-0.707106781186548,0.707106781186547,0.));
#231=DIRECTION('center_axis',(0.707106781186547,0.707106781186548,0.));
#232=DIRECTION('ref_axis',(-0.707106781186548,0.707106781186547,0.));
#233=DIRECTION('center_axis',(0.707106781186547,0.707106781186548,0.));
#234=DIRECTION('ref_axis',(0.,0.,1.));
#235=DIRECTION('center_axis',(-0.707106781186547,-0.707106781186548,0.));
#236=DIRECTION('ref_axis',(0.707106781186548,-0.707106781186547,0.));
#237=DIRECTION('center_axis',(0.707106781186547,0.707106781186548,0.));
#238=DIRECTION('ref_axis',(-0.707106781186548,0.707106781186547,0.));
#239=DIRECTION('center_axis',(0.707106781186547,0.707106781186548,0.));
#240=DIRECTION('ref_axis',(-0.707106781186548,0.707106781186547,0.));
#241=DIRECTION('center_axis',(0.707106781186547,0.707106781186548,0.));
#242=DIRECTION('ref_axis',(0.,0.,-1.));
#243=DIRECTION('center_axis',(0.707106781186547,0.707106781186548,0.));
#244=DIRECTION('ref_axis',(0.707106781186548,-0.707106781186547,0.));
#245=DIRECTION('center_axis',(0.707106781186548,0.707106781186547,0.));
#246=DIRECTION('ref_axis',(0.707106781186547,-0.707106781186548,0.));
#247=DIRECTION('center_axis',(0.707106781186547,0.707106781186548,0.));
#248=DIRECTION('ref_axis',(0.707106781186548,-0.707106781186547,0.));
#249=DIRECTION('center_axis',(0.,0.,-1.));
#250=DIRECTION('ref_axis',(-1.,0.,0.));
#251=DIRECTION('center_axis',(-0.707106781186547,-0.707106781186548,0.));
#252=DIRECTION('ref_axis',(-0.707106781186548,0.707106781186547,0.));
#253=DIRECTION('center_axis',(0.,1.,0.));
#254=DIRECTION('ref_axis',(-1.,0.,0.));
#255=DIRECTION('center_axis',(0.707106781186547,0.707106781186548,0.));
#256=DIRECTION('ref_axis',(0.,0.,1.));
#257=DIRECTION('center_axis',(0.,1.,0.));
#258=DIRECTION('ref_axis',(0.,0.,1.));
#259=CARTESIAN_POINT('',(0.,0.,0.));
#260=CARTESIAN_POINT('Origin',(0.,0.5,0.));
#261=CARTESIAN_POINT('',(100.,0.5,-1.22464679914735E-14));
#262=CARTESIAN_POINT('Origin',(0.,0.5,0.));
#263=CARTESIAN_POINT('',(100.5,0.,1.23077003314309E-14));
#264=CARTESIAN_POINT('Origin',(0.,0.,0.));
#265=CARTESIAN_POINT('Origin',(1.34345620626258E-14,0.,-2.041789470575E-15));
#266=CARTESIAN_POINT('',(-115.5,0.,1.41446705301519E-14));
#267=CARTESIAN_POINT('Origin',(-2.51349496883442E-17,0.,0.));
#268=CARTESIAN_POINT('Origin',(0.,0.,0.));
#269=CARTESIAN_POINT('',(100.,106.,1.22464679914735E-14));
#270=CARTESIAN_POINT('Origin',(0.,106.,0.));
#271=CARTESIAN_POINT('Origin',(-2.51349496883442E-17,0.5,0.));
#272=CARTESIAN_POINT('',(-116.,0.5,-1.42059028701093E-14));
#273=CARTESIAN_POINT('Origin',(-2.51349496883442E-17,0.5,0.));
#274=CARTESIAN_POINT('Origin',(0.,0.,0.));
#275=CARTESIAN_POINT('',(112.364414979368,106.,-28.8138551107675));
#276=CARTESIAN_POINT('',(112.364414979368,106.,28.8138551107675));
#277=CARTESIAN_POINT('Origin',(-5.32860933392897E-15,106.,0.));
#278=CARTESIAN_POINT('Origin',(-4.44089209850063E-15,152.542864612573,0.));
#279=CARTESIAN_POINT('Origin',(107.510540598578,260.053405211151,0.));
#280=CARTESIAN_POINT('',(178.221218717233,189.342727092497,1.22464679914735E-14));
#281=CARTESIAN_POINT('Origin',(107.510540598578,260.053405211151,0.));
#282=CARTESIAN_POINT('',(178.92832549842,189.342727092497,-1.23077003314309E-14));
#283=CARTESIAN_POINT('Origin',(107.864093989172,260.406958601745,0.));
#284=CARTESIAN_POINT('Origin',(107.864093989172,260.406958601745,-2.041789470575E-15));
#285=CARTESIAN_POINT('',(26.1932607621255,342.077791828791,-1.41446705301519E-14));
#286=CARTESIAN_POINT('Origin',(107.864093989172,260.406958601745,0.));
#287=CARTESIAN_POINT('Origin',(107.864093989172,260.406958601745,0.));
#288=CARTESIAN_POINT('',(103.621453302052,114.742961677316,1.22464679914735E-14));
#289=CARTESIAN_POINT('Origin',(32.9107751833976,185.45363979597,0.));
#290=CARTESIAN_POINT('Origin',(107.510540598579,260.053405211151,0.));
#291=CARTESIAN_POINT('',(25.486153980939,342.077791828791,1.42059028701093E-14));
#292=CARTESIAN_POINT('Origin',(107.510540598579,260.053405211151,0.));
#293=CARTESIAN_POINT('Origin',(32.9107751833977,185.453639795971,0.));
#294=CARTESIAN_POINT('Origin',(32.9107751833977,185.453639795971,0.));
#295=CARTESIAN_POINT('Origin',(112.364414979368,106.,0.));
#296=CARTESIAN_POINT('',(-35.6785825916975,254.042997571066,-1.18790739517293E-14));
#297=CARTESIAN_POINT('Origin',(32.9107751833976,185.453639795971,0.));
#298=CARTESIAN_POINT('',(-97.,106.,-1.18790739517293E-14));
#299=CARTESIAN_POINT('Origin',(0.,106.,0.));
#300=CARTESIAN_POINT('Origin',(32.9107751833976,185.45363979597,0.));
#301=CARTESIAN_POINT('Origin',(-5.75749057102346E-15,106.,0.));
#302=CARTESIAN_POINT('Ctrl Pts',(112.364414979368,106.,28.8138551107674));
#303=CARTESIAN_POINT('Ctrl Pts',(112.364414979368,106.,28.8138551107674));
#304=CARTESIAN_POINT('Ctrl Pts',(112.364414979368,106.,28.8138551107674));
#305=CARTESIAN_POINT('Ctrl Pts',(86.9576907807499,106.,127.891597056277));
#306=CARTESIAN_POINT('Ctrl Pts',(86.9576907807499,116.52380973854,127.891597056277));
#307=CARTESIAN_POINT('Ctrl Pts',(94.3991480107889,123.965266968579,127.891597056277));
#308=CARTESIAN_POINT('Ctrl Pts',(-14.521154609625,106.,115.087514825907));
#309=CARTESIAN_POINT('Ctrl Pts',(-14.521154609625,158.557723793196,115.087514825907));
#310=CARTESIAN_POINT('Ctrl Pts',(22.6427682882735,195.721646691095,115.087514825907));
#311=CARTESIAN_POINT('Ctrl Pts',(-116.,106.,102.283432595537));
#312=CARTESIAN_POINT('Ctrl Pts',(-116.,200.591637847852,102.283432595537));
#313=CARTESIAN_POINT('Ctrl Pts',(-49.1136114342419,267.47802641361,102.283432595537));
#314=CARTESIAN_POINT('Ctrl Pts',(-116.,106.,0.));
#315=CARTESIAN_POINT('Ctrl Pts',(-116.,200.591637847852,0.));
#316=CARTESIAN_POINT('Ctrl Pts',(-49.1136114342419,267.47802641361,0.));
#317=CARTESIAN_POINT('Ctrl Pts',(-116.,106.,-102.283432595537));
#318=CARTESIAN_POINT('Ctrl Pts',(-116.,200.591637847852,-102.283432595537));
#319=CARTESIAN_POINT('Ctrl Pts',(-49.1136114342419,267.47802641361,-102.283432595537));
#320=CARTESIAN_POINT('Ctrl Pts',(-14.521154609625,106.,-115.087514825907));
#321=CARTESIAN_POINT('Ctrl Pts',(-14.521154609625,158.557723793196,-115.087514825907));
#322=CARTESIAN_POINT('Ctrl Pts',(22.6427682882735,195.721646691095,-115.087514825907));
#323=CARTESIAN_POINT('Ctrl Pts',(86.9576907807499,106.,-127.891597056277));
#324=CARTESIAN_POINT('Ctrl Pts',(86.9576907807499,116.52380973854,-127.891597056277));
#325=CARTESIAN_POINT('Ctrl Pts',(94.3991480107889,123.965266968579,-127.891597056277));
#326=CARTESIAN_POINT('Ctrl Pts',(112.364414979368,106.,-28.8138551107674));
#327=CARTESIAN_POINT('Ctrl Pts',(112.364414979368,106.,-28.8138551107674));
#328=CARTESIAN_POINT('Ctrl Pts',(112.364414979368,106.,-28.8138551107674));
#329=UNCERTAINTY_MEASURE_WITH_UNIT(LENGTH_MEASURE(0.01),#333,
'DISTANCE_ACCURACY_VALUE',
'Maximum model space distance between geometric entities at asserted c
onnectivities');
#330=UNCERTAINTY_MEASURE_WITH_UNIT(LENGTH_MEASURE(1.E-6),#333,
'DISTANCE_ACCURACY_VALUE',
'Maximum model space distance between geometric entities at asserted c
onnectivities');
#331=(
GEOMETRIC_REPRESENTATION_CONTEXT(3)
GLOBAL_UNCERTAINTY_ASSIGNED_CONTEXT((#329))
GLOBAL_UNIT_ASSIGNED_CONTEXT((#333,#336,#334))
REPRESENTATION_CONTEXT('','3D')
);
#332=(
GEOMETRIC_REPRESENTATION_CONTEXT(3)
GLOBAL_UNCERTAINTY_ASSIGNED_CONTEXT((#330))
GLOBAL_UNIT_ASSIGNED_CONTEXT((#333,#336,#334))
REPRESENTATION_CONTEXT('','3D')
);
#333=(
LENGTH_UNIT()
NAMED_UNIT(*)
SI_UNIT(.MILLI.,.METRE.)
);
#334=(
NAMED_UNIT(*)
SI_UNIT($,.STERADIAN.)
SOLID_ANGLE_UNIT()
);
#335=DIMENSIONAL_EXPONENTS(0.,0.,0.,0.,0.,0.,0.);
#336=(
CONVERSION_BASED_UNIT('degree',#338)
NAMED_UNIT(#335)
PLANE_ANGLE_UNIT()
);
#337=(
NAMED_UNIT(*)
PLANE_ANGLE_UNIT()
SI_UNIT($,.RADIAN.)
);
#338=PLANE_ANGLE_MEASURE_WITH_UNIT(PLANE_ANGLE_MEASURE(0.01745329252),#337);
#339=SHAPE_DEFINITION_REPRESENTATION(#340,#341);
#340=PRODUCT_DEFINITION_SHAPE('',$,#343);
#341=SHAPE_REPRESENTATION('',(#172),#331);
#342=PRODUCT_DEFINITION_CONTEXT('part definition',#347,'design');
#343=PRODUCT_DEFINITION('EY502000','EY502000',#344,#342);
#344=PRODUCT_DEFINITION_FORMATION('',$,#349);
#345=PRODUCT_RELATED_PRODUCT_CATEGORY('EY502000','EY502000',(#349));
#346=APPLICATION_PROTOCOL_DEFINITION('international standard',
'automotive_design',2009,#347);
#347=APPLICATION_CONTEXT(
'Core Data for Automotive Mechanical Design Process');
#348=PRODUCT_CONTEXT('part definition',#347,'mechanical');
#349=PRODUCT('EY502000','EY502000',$,(#348));
#350=PRESENTATION_STYLE_ASSIGNMENT((#351));
#351=SURFACE_STYLE_USAGE(.BOTH.,#352);
#352=SURFACE_SIDE_STYLE('',(#353));
#353=SURFACE_STYLE_FILL_AREA(#354);
#354=FILL_AREA_STYLE('',(#355));
#355=FILL_AREA_STYLE_COLOUR('',#356);
#356=COLOUR_RGB('',0.8,0.8,0.8);
ENDSEC;
END-ISO-10303-21;
