ISO-10303-21;
HEADER;
FILE_DESCRIPTION( ( '' ), '1' );
FILE_NAME( '//se01002/users/anro/AGRU_25705003211_PE_100_schwarz_Rohr__5m_32X3_0__SDR11__ISO_S-5_05.stp', '2018-01-02T12:13:53', ( '' ), ( '' ), ' ', ' ', ' ' );
FILE_SCHEMA( ( 'automotive_design' ) );
ENDSEC;
DATA;
#1 = MECHANICAL_DESIGN_GEOMETRIC_PRESENTATION_REPRESENTATION( ' ', ( #10, #11, #12, #13, #14, #15, #16, #17, #18, #19, #20, #21, #22, #23, #24, #25, #26, #27, #28, #29, #30, #31, #32, #33, #34, #35, #36 ), #6 );
#2 = PRODUCT_DEFINITION_CONTEXT( '', #37, 'design' );
#3 = APPLICATION_PROTOCOL_DEFINITION( 'INTERNATIONAL STANDARD', 'automotive_design', 1994, #37 );
#4 = PRODUCT_CATEGORY_RELATIONSHIP( 'NONE', 'NONE', #38, #39 );
#5 = SHAPE_DEFINITION_REPRESENTATION( #40, #41 );
#6 =  ( GEOMETRIC_REPRESENTATION_CONTEXT( 3 )GLOBAL_UNCERTAINTY_ASSIGNED_CONTEXT( ( #44 ) )GLOBAL_UNIT_ASSIGNED_CONTEXT( ( #46, #47, #48 ) )REPRESENTATION_CONTEXT( 'NONE', 'WORKSPACE' ) );
#10 = STYLED_ITEM( '', ( #50 ), #51 );
#11 = STYLED_ITEM( '', ( #52 ), #53 );
#12 = STYLED_ITEM( '', ( #54 ), #55 );
#13 = STYLED_ITEM( '', ( #56 ), #57 );
#14 = STYLED_ITEM( '', ( #58 ), #59 );
#15 = STYLED_ITEM( '', ( #60 ), #61 );
#16 = STYLED_ITEM( '', ( #62 ), #63 );
#17 = STYLED_ITEM( '', ( #64 ), #65 );
#18 = STYLED_ITEM( '', ( #66 ), #67 );
#19 = STYLED_ITEM( '', ( #68 ), #69 );
#20 = STYLED_ITEM( '', ( #70 ), #71 );
#21 = STYLED_ITEM( '', ( #72 ), #73 );
#22 = STYLED_ITEM( '', ( #74 ), #75 );
#23 = STYLED_ITEM( '', ( #76 ), #77 );
#24 = STYLED_ITEM( '', ( #78 ), #79 );
#25 = STYLED_ITEM( '', ( #80 ), #81 );
#26 = STYLED_ITEM( '', ( #82 ), #83 );
#27 = STYLED_ITEM( '', ( #84 ), #85 );
#28 = STYLED_ITEM( '', ( #86 ), #87 );
#29 = STYLED_ITEM( '', ( #88 ), #89 );
#30 = STYLED_ITEM( '', ( #90 ), #91 );
#31 = STYLED_ITEM( '', ( #92 ), #93 );
#32 = STYLED_ITEM( '', ( #94 ), #95 );
#33 = STYLED_ITEM( '', ( #96 ), #97 );
#34 = STYLED_ITEM( '', ( #98 ), #99 );
#35 = STYLED_ITEM( '', ( #100 ), #101 );
#36 = STYLED_ITEM( '', ( #102 ), #103 );
#37 = APPLICATION_CONTEXT( ' ' );
#38 = PRODUCT_CATEGORY( 'part', 'NONE' );
#39 = PRODUCT_RELATED_PRODUCT_CATEGORY( 'detail', ' ', ( #104 ) );
#40 = PRODUCT_DEFINITION_SHAPE( 'NONE', 'NONE', #105 );
#41 = ADVANCED_BREP_SHAPE_REPRESENTATION( '1', ( #77, #106 ), #6 );
#44 = UNCERTAINTY_MEASURE_WITH_UNIT( LENGTH_MEASURE( 1.00000000000000E-006 ), #46, '', '' );
#46 =  ( CONVERSION_BASED_UNIT( 'MILLIMETRE', #109 )LENGTH_UNIT(  )NAMED_UNIT( #112 ) );
#47 =  ( NAMED_UNIT( #114 )PLANE_ANGLE_UNIT(  )SI_UNIT( $, .RADIAN. ) );
#48 =  ( NAMED_UNIT( #114 )SOLID_ANGLE_UNIT(  )SI_UNIT( $, .STERADIAN. ) );
#50 = PRESENTATION_STYLE_ASSIGNMENT( ( #120 ) );
#51 = VERTEX_POINT( '', #121 );
#52 = PRESENTATION_STYLE_ASSIGNMENT( ( #122 ) );
#53 = EDGE_CURVE( '', #101, #71, #123, .T. );
#54 = PRESENTATION_STYLE_ASSIGNMENT( ( #124 ) );
#55 = EDGE_CURVE( '', #87, #65, #125, .T. );
#56 = PRESENTATION_STYLE_ASSIGNMENT( ( #126 ) );
#57 = VERTEX_POINT( '', #127 );
#58 = PRESENTATION_STYLE_ASSIGNMENT( ( #128 ) );
#59 = ADVANCED_FACE( '', ( #129 ), #130, .T. );
#60 = PRESENTATION_STYLE_ASSIGNMENT( ( #131 ) );
#61 = ADVANCED_FACE( '', ( #132 ), #133, .T. );
#62 = PRESENTATION_STYLE_ASSIGNMENT( ( #134 ) );
#63 = ADVANCED_FACE( '', ( #135, #136 ), #137, .F. );
#64 = PRESENTATION_STYLE_ASSIGNMENT( ( #138 ) );
#65 = VERTEX_POINT( '', #139 );
#66 = PRESENTATION_STYLE_ASSIGNMENT( ( #140 ) );
#67 = EDGE_CURVE( '', #51, #57, #141, .T. );
#68 = PRESENTATION_STYLE_ASSIGNMENT( ( #142 ) );
#69 = VERTEX_POINT( '', #143 );
#70 = PRESENTATION_STYLE_ASSIGNMENT( ( #144 ) );
#71 = VERTEX_POINT( '', #145 );
#72 = PRESENTATION_STYLE_ASSIGNMENT( ( #146 ) );
#73 = EDGE_CURVE( '', #57, #87, #147, .T. );
#74 = PRESENTATION_STYLE_ASSIGNMENT( ( #148 ) );
#75 = EDGE_CURVE( '', #69, #85, #149, .T. );
#76 = PRESENTATION_STYLE_ASSIGNMENT( ( #150 ) );
#77 = MANIFOLD_SOLID_BREP( '1', #151 );
#78 = PRESENTATION_STYLE_ASSIGNMENT( ( #152 ) );
#79 = ADVANCED_FACE( '', ( #153 ), #154, .F. );
#80 = PRESENTATION_STYLE_ASSIGNMENT( ( #155 ) );
#81 = EDGE_CURVE( '', #69, #101, #156, .T. );
#82 = PRESENTATION_STYLE_ASSIGNMENT( ( #157 ) );
#83 = EDGE_CURVE( '', #87, #57, #158, .T. );
#84 = PRESENTATION_STYLE_ASSIGNMENT( ( #159 ) );
#85 = VERTEX_POINT( '', #160 );
#86 = PRESENTATION_STYLE_ASSIGNMENT( ( #161 ) );
#87 = VERTEX_POINT( '', #162 );
#88 = PRESENTATION_STYLE_ASSIGNMENT( ( #163 ) );
#89 = EDGE_CURVE( '', #65, #51, #164, .T. );
#90 = PRESENTATION_STYLE_ASSIGNMENT( ( #165 ) );
#91 = ADVANCED_FACE( '', ( #166 ), #167, .F. );
#92 = PRESENTATION_STYLE_ASSIGNMENT( ( #168 ) );
#93 = ADVANCED_FACE( '', ( #169, #170 ), #171, .T. );
#94 = PRESENTATION_STYLE_ASSIGNMENT( ( #172 ) );
#95 = EDGE_CURVE( '', #85, #69, #173, .T. );
#96 = PRESENTATION_STYLE_ASSIGNMENT( ( #174 ) );
#97 = EDGE_CURVE( '', #71, #85, #175, .T. );
#98 = PRESENTATION_STYLE_ASSIGNMENT( ( #176 ) );
#99 = EDGE_CURVE( '', #51, #65, #177, .T. );
#100 = PRESENTATION_STYLE_ASSIGNMENT( ( #178 ) );
#101 = VERTEX_POINT( '', #179 );
#102 = PRESENTATION_STYLE_ASSIGNMENT( ( #180 ) );
#103 = EDGE_CURVE( '', #71, #101, #181, .T. );
#104 = PRODUCT( '1', '1', 'PART-1-DESC', ( #182 ) );
#105 = PRODUCT_DEFINITION( 'NONE', 'NONE', #183, #2 );
#106 = AXIS2_PLACEMENT_3D( '', #184, #185, #186 );
#109 = LENGTH_MEASURE_WITH_UNIT( LENGTH_MEASURE( 1.00000000000000 ), #187 );
#112 = DIMENSIONAL_EXPONENTS( 1.00000000000000, 0.000000000000000, 0.000000000000000, 0.000000000000000, 0.000000000000000, 0.000000000000000, 0.000000000000000 );
#114 = DIMENSIONAL_EXPONENTS( 0.000000000000000, 0.000000000000000, 0.000000000000000, 0.000000000000000, 0.000000000000000, 0.000000000000000, 0.000000000000000 );
#120 = POINT_STYLE( ' ', #188, POSITIVE_LENGTH_MEASURE( 1.00000000000000E-006 ), #189 );
#121 = CARTESIAN_POINT( '', ( 0.000000000000000, 0.000000000000000, -16.0000000000000 ) );
#122 = CURVE_STYLE( '', #190, POSITIVE_LENGTH_MEASURE( 1.00000000000000E-006 ), #191 );
#123 = CIRCLE( '', #192, 13.0000000000000 );
#124 = CURVE_STYLE( '', #193, POSITIVE_LENGTH_MEASURE( 1.00000000000000E-006 ), #194 );
#125 = LINE( '', #195, #196 );
#126 = POINT_STYLE( ' ', #197, POSITIVE_LENGTH_MEASURE( 1.00000000000000E-006 ), #198 );
#127 = CARTESIAN_POINT( '', ( 5000.00000000000, 0.000000000000000, -16.0000000000000 ) );
#128 = SURFACE_STYLE_USAGE( .BOTH., #199 );
#129 = FACE_OUTER_BOUND( '', #200, .T. );
#130 = CYLINDRICAL_SURFACE( '', #201, 16.0000000000000 );
#131 = SURFACE_STYLE_USAGE( .BOTH., #202 );
#132 = FACE_OUTER_BOUND( '', #203, .T. );
#133 = CYLINDRICAL_SURFACE( '', #204, 16.0000000000000 );
#134 = SURFACE_STYLE_USAGE( .BOTH., #205 );
#135 = FACE_OUTER_BOUND( '', #206, .T. );
#136 = FACE_BOUND( '', #207, .T. );
#137 = PLANE( '', #208 );
#138 = POINT_STYLE( ' ', #209, POSITIVE_LENGTH_MEASURE( 1.00000000000000E-006 ), #210 );
#139 = CARTESIAN_POINT( '', ( 0.000000000000000, 1.95937016611580E-015, 16.0000000000000 ) );
#140 = CURVE_STYLE( '', #211, POSITIVE_LENGTH_MEASURE( 1.00000000000000E-006 ), #212 );
#141 = LINE( '', #213, #214 );
#142 = POINT_STYLE( ' ', #215, POSITIVE_LENGTH_MEASURE( 1.00000000000000E-006 ), #216 );
#143 = CARTESIAN_POINT( '', ( 0.000000000000000, 0.000000000000000, -13.0000000000000 ) );
#144 = POINT_STYLE( ' ', #217, POSITIVE_LENGTH_MEASURE( 1.00000000000000E-006 ), #218 );
#145 = CARTESIAN_POINT( '', ( 5000.00000000000, 1.59198825996909E-015, 13.0000000000000 ) );
#146 = CURVE_STYLE( '', #219, POSITIVE_LENGTH_MEASURE( 1.00000000000000E-006 ), #220 );
#147 = CIRCLE( '', #221, 16.0000000000000 );
#148 = CURVE_STYLE( '', #222, POSITIVE_LENGTH_MEASURE( 1.00000000000000E-006 ), #223 );
#149 = CIRCLE( '', #224, 13.0000000000000 );
#150 = SURFACE_STYLE_USAGE( .BOTH., #225 );
#151 = CLOSED_SHELL( '', ( #61, #79, #91, #59, #93, #63 ) );
#152 = SURFACE_STYLE_USAGE( .BOTH., #226 );
#153 = FACE_OUTER_BOUND( '', #227, .T. );
#154 = CYLINDRICAL_SURFACE( '', #228, 13.0000000000000 );
#155 = CURVE_STYLE( '', #229, POSITIVE_LENGTH_MEASURE( 1.00000000000000E-006 ), #230 );
#156 = LINE( '', #231, #232 );
#157 = CURVE_STYLE( '', #233, POSITIVE_LENGTH_MEASURE( 1.00000000000000E-006 ), #234 );
#158 = CIRCLE( '', #235, 16.0000000000000 );
#159 = POINT_STYLE( ' ', #236, POSITIVE_LENGTH_MEASURE( 1.00000000000000E-006 ), #237 );
#160 = CARTESIAN_POINT( '', ( 0.000000000000000, 1.59198825996909E-015, 13.0000000000000 ) );
#161 = POINT_STYLE( ' ', #238, POSITIVE_LENGTH_MEASURE( 1.00000000000000E-006 ), #239 );
#162 = CARTESIAN_POINT( '', ( 5000.00000000000, 1.95937016611580E-015, 16.0000000000000 ) );
#163 = CURVE_STYLE( '', #240, POSITIVE_LENGTH_MEASURE( 1.00000000000000E-006 ), #241 );
#164 = CIRCLE( '', #242, 16.0000000000000 );
#165 = SURFACE_STYLE_USAGE( .BOTH., #243 );
#166 = FACE_OUTER_BOUND( '', #244, .T. );
#167 = CYLINDRICAL_SURFACE( '', #245, 13.0000000000000 );
#168 = SURFACE_STYLE_USAGE( .BOTH., #246 );
#169 = FACE_OUTER_BOUND( '', #247, .T. );
#170 = FACE_BOUND( '', #248, .T. );
#171 = PLANE( '', #249 );
#172 = CURVE_STYLE( '', #250, POSITIVE_LENGTH_MEASURE( 1.00000000000000E-006 ), #251 );
#173 = CIRCLE( '', #252, 13.0000000000000 );
#174 = CURVE_STYLE( '', #253, POSITIVE_LENGTH_MEASURE( 1.00000000000000E-006 ), #254 );
#175 = LINE( '', #255, #256 );
#176 = CURVE_STYLE( '', #257, POSITIVE_LENGTH_MEASURE( 1.00000000000000E-006 ), #258 );
#177 = CIRCLE( '', #259, 16.0000000000000 );
#178 = POINT_STYLE( ' ', #260, POSITIVE_LENGTH_MEASURE( 1.00000000000000E-006 ), #261 );
#179 = CARTESIAN_POINT( '', ( 5000.00000000000, 0.000000000000000, -13.0000000000000 ) );
#180 = CURVE_STYLE( '', #262, POSITIVE_LENGTH_MEASURE( 1.00000000000000E-006 ), #263 );
#181 = CIRCLE( '', #264, 13.0000000000000 );
#182 = PRODUCT_CONTEXT( '', #37, 'mechanical' );
#183 = PRODUCT_DEFINITION_FORMATION_WITH_SPECIFIED_SOURCE( ' ', 'NONE', #104, .NOT_KNOWN. );
#184 = CARTESIAN_POINT( '', ( 0.000000000000000, 0.000000000000000, 0.000000000000000 ) );
#185 = DIRECTION( '', ( 0.000000000000000, 0.000000000000000, 1.00000000000000 ) );
#186 = DIRECTION( '', ( 1.00000000000000, 0.000000000000000, 0.000000000000000 ) );
#187 =  ( NAMED_UNIT( #112 )LENGTH_UNIT(  )SI_UNIT( .MILLI., .METRE. ) );
#188 = PRE_DEFINED_MARKER( '' );
#189 = COLOUR_RGB( '', 0.689999997615810, 0.689999997615810, 0.689999997615810 );
#190 = DRAUGHTING_PRE_DEFINED_CURVE_FONT( 'continuous' );
#191 = COLOUR_RGB( '', 0.689999997615810, 0.689999997615810, 0.689999997615810 );
#192 = AXIS2_PLACEMENT_3D( '', #266, #267, #268 );
#193 = DRAUGHTING_PRE_DEFINED_CURVE_FONT( 'continuous' );
#194 = COLOUR_RGB( '', 0.689999997615810, 0.689999997615810, 0.689999997615810 );
#195 = CARTESIAN_POINT( '', ( 0.000000000000000, 1.95937016611580E-015, 16.0000000000000 ) );
#196 = VECTOR( '', #269, 1.00000000000000 );
#197 = PRE_DEFINED_MARKER( '' );
#198 = COLOUR_RGB( '', 0.689999997615810, 0.689999997615810, 0.689999997615810 );
#199 = SURFACE_SIDE_STYLE( '', ( #270 ) );
#200 = EDGE_LOOP( '', ( #271, #272, #273, #274 ) );
#201 = AXIS2_PLACEMENT_3D( '', #275, #276, #277 );
#202 = SURFACE_SIDE_STYLE( '', ( #278 ) );
#203 = EDGE_LOOP( '', ( #279, #280, #281, #282 ) );
#204 = AXIS2_PLACEMENT_3D( '', #283, #284, #285 );
#205 = SURFACE_SIDE_STYLE( '', ( #286 ) );
#206 = EDGE_LOOP( '', ( #287, #288 ) );
#207 = EDGE_LOOP( '', ( #289, #290 ) );
#208 = AXIS2_PLACEMENT_3D( '', #291, #292, #293 );
#209 = PRE_DEFINED_MARKER( '' );
#210 = COLOUR_RGB( '', 0.689999997615810, 0.689999997615810, 0.689999997615810 );
#211 = DRAUGHTING_PRE_DEFINED_CURVE_FONT( 'continuous' );
#212 = COLOUR_RGB( '', 0.689999997615810, 0.689999997615810, 0.689999997615810 );
#213 = CARTESIAN_POINT( '', ( 0.000000000000000, -1.95937016611580E-015, -16.0000000000000 ) );
#214 = VECTOR( '', #294, 1.00000000000000 );
#215 = PRE_DEFINED_MARKER( '' );
#216 = COLOUR_RGB( '', 0.689999997615810, 0.689999997615810, 0.689999997615810 );
#217 = PRE_DEFINED_MARKER( '' );
#218 = COLOUR_RGB( '', 0.689999997615810, 0.689999997615810, 0.689999997615810 );
#219 = DRAUGHTING_PRE_DEFINED_CURVE_FONT( 'continuous' );
#220 = COLOUR_RGB( '', 0.689999997615810, 0.689999997615810, 0.689999997615810 );
#221 = AXIS2_PLACEMENT_3D( '', #295, #296, #297 );
#222 = DRAUGHTING_PRE_DEFINED_CURVE_FONT( 'continuous' );
#223 = COLOUR_RGB( '', 0.689999997615810, 0.689999997615810, 0.689999997615810 );
#224 = AXIS2_PLACEMENT_3D( '', #298, #299, #300 );
#225 = SURFACE_SIDE_STYLE( '', ( #301 ) );
#226 = SURFACE_SIDE_STYLE( '', ( #302 ) );
#227 = EDGE_LOOP( '', ( #303, #304, #305, #306 ) );
#228 = AXIS2_PLACEMENT_3D( '', #307, #308, #309 );
#229 = DRAUGHTING_PRE_DEFINED_CURVE_FONT( 'continuous' );
#230 = COLOUR_RGB( '', 0.689999997615810, 0.689999997615810, 0.689999997615810 );
#231 = CARTESIAN_POINT( '', ( 0.000000000000000, -1.59198825996909E-015, -13.0000000000000 ) );
#232 = VECTOR( '', #310, 1.00000000000000 );
#233 = DRAUGHTING_PRE_DEFINED_CURVE_FONT( 'continuous' );
#234 = COLOUR_RGB( '', 0.689999997615810, 0.689999997615810, 0.689999997615810 );
#235 = AXIS2_PLACEMENT_3D( '', #311, #312, #313 );
#236 = PRE_DEFINED_MARKER( '' );
#237 = COLOUR_RGB( '', 0.689999997615810, 0.689999997615810, 0.689999997615810 );
#238 = PRE_DEFINED_MARKER( '' );
#239 = COLOUR_RGB( '', 0.689999997615810, 0.689999997615810, 0.689999997615810 );
#240 = DRAUGHTING_PRE_DEFINED_CURVE_FONT( 'continuous' );
#241 = COLOUR_RGB( '', 0.689999997615810, 0.689999997615810, 0.689999997615810 );
#242 = AXIS2_PLACEMENT_3D( '', #314, #315, #316 );
#243 = SURFACE_SIDE_STYLE( '', ( #317 ) );
#244 = EDGE_LOOP( '', ( #318, #319, #320, #321 ) );
#245 = AXIS2_PLACEMENT_3D( '', #322, #323, #324 );
#246 = SURFACE_SIDE_STYLE( '', ( #325 ) );
#247 = EDGE_LOOP( '', ( #326, #327 ) );
#248 = EDGE_LOOP( '', ( #328, #329 ) );
#249 = AXIS2_PLACEMENT_3D( '', #330, #331, #332 );
#250 = DRAUGHTING_PRE_DEFINED_CURVE_FONT( 'continuous' );
#251 = COLOUR_RGB( '', 0.689999997615810, 0.689999997615810, 0.689999997615810 );
#252 = AXIS2_PLACEMENT_3D( '', #333, #334, #335 );
#253 = DRAUGHTING_PRE_DEFINED_CURVE_FONT( 'continuous' );
#254 = COLOUR_RGB( '', 0.689999997615810, 0.689999997615810, 0.689999997615810 );
#255 = CARTESIAN_POINT( '', ( 0.000000000000000, 1.59198825996909E-015, 13.0000000000000 ) );
#256 = VECTOR( '', #336, 1.00000000000000 );
#257 = DRAUGHTING_PRE_DEFINED_CURVE_FONT( 'continuous' );
#258 = COLOUR_RGB( '', 0.689999997615810, 0.689999997615810, 0.689999997615810 );
#259 = AXIS2_PLACEMENT_3D( '', #337, #338, #339 );
#260 = PRE_DEFINED_MARKER( '' );
#261 = COLOUR_RGB( '', 0.689999997615810, 0.689999997615810, 0.689999997615810 );
#262 = DRAUGHTING_PRE_DEFINED_CURVE_FONT( 'continuous' );
#263 = COLOUR_RGB( '', 0.689999997615810, 0.689999997615810, 0.689999997615810 );
#264 = AXIS2_PLACEMENT_3D( '', #340, #341, #342 );
#266 = CARTESIAN_POINT( '', ( 5000.00000000000, 0.000000000000000, 0.000000000000000 ) );
#267 = DIRECTION( '', ( 1.00000000000000, 0.000000000000000, 0.000000000000000 ) );
#268 = DIRECTION( '', ( 0.000000000000000, 0.000000000000000, -1.00000000000000 ) );
#269 = DIRECTION( '', ( -1.00000000000000, -0.000000000000000, -0.000000000000000 ) );
#270 = SURFACE_STYLE_FILL_AREA( #343 );
#271 = ORIENTED_EDGE( '', *, *, #67, .T. );
#272 = ORIENTED_EDGE( '', *, *, #73, .T. );
#273 = ORIENTED_EDGE( '', *, *, #55, .T. );
#274 = ORIENTED_EDGE( '', *, *, #89, .T. );
#275 = CARTESIAN_POINT( '', ( 0.000000000000000, 0.000000000000000, 0.000000000000000 ) );
#276 = DIRECTION( '', ( -1.00000000000000, -0.000000000000000, -0.000000000000000 ) );
#277 = DIRECTION( '', ( 0.000000000000000, 0.000000000000000, -1.00000000000000 ) );
#278 = SURFACE_STYLE_FILL_AREA( #344 );
#279 = ORIENTED_EDGE( '', *, *, #67, .F. );
#280 = ORIENTED_EDGE( '', *, *, #99, .T. );
#281 = ORIENTED_EDGE( '', *, *, #55, .F. );
#282 = ORIENTED_EDGE( '', *, *, #83, .T. );
#283 = CARTESIAN_POINT( '', ( 0.000000000000000, 0.000000000000000, 0.000000000000000 ) );
#284 = DIRECTION( '', ( -1.00000000000000, -0.000000000000000, -0.000000000000000 ) );
#285 = DIRECTION( '', ( 0.000000000000000, 0.000000000000000, -1.00000000000000 ) );
#286 = SURFACE_STYLE_FILL_AREA( #345 );
#287 = ORIENTED_EDGE( '', *, *, #99, .F. );
#288 = ORIENTED_EDGE( '', *, *, #89, .F. );
#289 = ORIENTED_EDGE( '', *, *, #75, .T. );
#290 = ORIENTED_EDGE( '', *, *, #95, .T. );
#291 = CARTESIAN_POINT( '', ( 0.000000000000000, 0.000000000000000, 0.000000000000000 ) );
#292 = DIRECTION( '', ( 1.00000000000000, 0.000000000000000, 0.000000000000000 ) );
#293 = DIRECTION( '', ( 0.000000000000000, 0.000000000000000, -1.00000000000000 ) );
#294 = DIRECTION( '', ( 1.00000000000000, 0.000000000000000, 0.000000000000000 ) );
#295 = CARTESIAN_POINT( '', ( 5000.00000000000, 0.000000000000000, 0.000000000000000 ) );
#296 = DIRECTION( '', ( -1.00000000000000, 0.000000000000000, 0.000000000000000 ) );
#297 = DIRECTION( '', ( 0.000000000000000, 0.000000000000000, -1.00000000000000 ) );
#298 = CARTESIAN_POINT( '', ( 0.000000000000000, 0.000000000000000, 0.000000000000000 ) );
#299 = DIRECTION( '', ( 1.00000000000000, -0.000000000000000, 0.000000000000000 ) );
#300 = DIRECTION( '', ( 0.000000000000000, 0.000000000000000, -1.00000000000000 ) );
#301 = SURFACE_STYLE_FILL_AREA( #346 );
#302 = SURFACE_STYLE_FILL_AREA( #347 );
#303 = ORIENTED_EDGE( '', *, *, #81, .F. );
#304 = ORIENTED_EDGE( '', *, *, #95, .F. );
#305 = ORIENTED_EDGE( '', *, *, #97, .F. );
#306 = ORIENTED_EDGE( '', *, *, #103, .T. );
#307 = CARTESIAN_POINT( '', ( 0.000000000000000, 0.000000000000000, 0.000000000000000 ) );
#308 = DIRECTION( '', ( -1.00000000000000, -0.000000000000000, -0.000000000000000 ) );
#309 = DIRECTION( '', ( 0.000000000000000, 0.000000000000000, -1.00000000000000 ) );
#310 = DIRECTION( '', ( 1.00000000000000, 0.000000000000000, 0.000000000000000 ) );
#311 = CARTESIAN_POINT( '', ( 5000.00000000000, 0.000000000000000, 0.000000000000000 ) );
#312 = DIRECTION( '', ( -1.00000000000000, 0.000000000000000, 0.000000000000000 ) );
#313 = DIRECTION( '', ( 0.000000000000000, 0.000000000000000, -1.00000000000000 ) );
#314 = CARTESIAN_POINT( '', ( 0.000000000000000, 0.000000000000000, 0.000000000000000 ) );
#315 = DIRECTION( '', ( 1.00000000000000, -0.000000000000000, 0.000000000000000 ) );
#316 = DIRECTION( '', ( 0.000000000000000, 0.000000000000000, -1.00000000000000 ) );
#317 = SURFACE_STYLE_FILL_AREA( #348 );
#318 = ORIENTED_EDGE( '', *, *, #81, .T. );
#319 = ORIENTED_EDGE( '', *, *, #53, .T. );
#320 = ORIENTED_EDGE( '', *, *, #97, .T. );
#321 = ORIENTED_EDGE( '', *, *, #75, .F. );
#322 = CARTESIAN_POINT( '', ( 0.000000000000000, 0.000000000000000, 0.000000000000000 ) );
#323 = DIRECTION( '', ( -1.00000000000000, -0.000000000000000, -0.000000000000000 ) );
#324 = DIRECTION( '', ( 0.000000000000000, 0.000000000000000, -1.00000000000000 ) );
#325 = SURFACE_STYLE_FILL_AREA( #349 );
#326 = ORIENTED_EDGE( '', *, *, #73, .F. );
#327 = ORIENTED_EDGE( '', *, *, #83, .F. );
#328 = ORIENTED_EDGE( '', *, *, #53, .F. );
#329 = ORIENTED_EDGE( '', *, *, #103, .F. );
#330 = CARTESIAN_POINT( '', ( 5000.00000000000, 0.000000000000000, 0.000000000000000 ) );
#331 = DIRECTION( '', ( 1.00000000000000, 0.000000000000000, 0.000000000000000 ) );
#332 = DIRECTION( '', ( 0.000000000000000, 0.000000000000000, -1.00000000000000 ) );
#333 = CARTESIAN_POINT( '', ( 0.000000000000000, 0.000000000000000, 0.000000000000000 ) );
#334 = DIRECTION( '', ( 1.00000000000000, -0.000000000000000, 0.000000000000000 ) );
#335 = DIRECTION( '', ( 0.000000000000000, 0.000000000000000, -1.00000000000000 ) );
#336 = DIRECTION( '', ( -1.00000000000000, 0.000000000000000, 0.000000000000000 ) );
#337 = CARTESIAN_POINT( '', ( 0.000000000000000, 0.000000000000000, 0.000000000000000 ) );
#338 = DIRECTION( '', ( 1.00000000000000, -0.000000000000000, 0.000000000000000 ) );
#339 = DIRECTION( '', ( 0.000000000000000, 0.000000000000000, -1.00000000000000 ) );
#340 = CARTESIAN_POINT( '', ( 5000.00000000000, 0.000000000000000, 0.000000000000000 ) );
#341 = DIRECTION( '', ( 1.00000000000000, 0.000000000000000, 0.000000000000000 ) );
#342 = DIRECTION( '', ( 0.000000000000000, 0.000000000000000, -1.00000000000000 ) );
#343 = FILL_AREA_STYLE( '', ( #350 ) );
#344 = FILL_AREA_STYLE( '', ( #351 ) );
#345 = FILL_AREA_STYLE( '', ( #352 ) );
#346 = FILL_AREA_STYLE( '', ( #353 ) );
#347 = FILL_AREA_STYLE( '', ( #354 ) );
#348 = FILL_AREA_STYLE( '', ( #355 ) );
#349 = FILL_AREA_STYLE( '', ( #356 ) );
#350 = FILL_AREA_STYLE_COLOUR( '', #357 );
#351 = FILL_AREA_STYLE_COLOUR( '', #358 );
#352 = FILL_AREA_STYLE_COLOUR( '', #359 );
#353 = FILL_AREA_STYLE_COLOUR( '', #360 );
#354 = FILL_AREA_STYLE_COLOUR( '', #361 );
#355 = FILL_AREA_STYLE_COLOUR( '', #362 );
#356 = FILL_AREA_STYLE_COLOUR( '', #363 );
#357 = COLOUR_RGB( '', 0.689999997615810, 0.689999997615810, 0.689999997615810 );
#358 = COLOUR_RGB( '', 0.689999997615810, 0.689999997615810, 0.689999997615810 );
#359 = COLOUR_RGB( '', 0.689999997615810, 0.689999997615810, 0.689999997615810 );
#360 = COLOUR_RGB( '', 0.689999997615810, 0.689999997615810, 0.689999997615810 );
#361 = COLOUR_RGB( '', 0.689999997615810, 0.689999997615810, 0.689999997615810 );
#362 = COLOUR_RGB( '', 0.689999997615810, 0.689999997615810, 0.689999997615810 );
#363 = COLOUR_RGB( '', 0.689999997615810, 0.689999997615810, 0.689999997615810 );
ENDSEC;
END-ISO-10303-21;
