ISO-10303-21;
HEADER;
/* Generated by software containing ST-Developer
 * from STEP Tools, Inc. (www.steptools.com) 
 */

FILE_DESCRIPTION(
/* description */ (''),
/* implementation_level */ '2;1');

FILE_NAME(
/* name */ 
'Q:\\Ric010\\FF7\\FIPlastiCAD\\FIP\\Lavoro\\PVC Fittings\\PVC Fittings
 STEP\\XIV\\XIV050.ipt.stp',
/* time_stamp */ '2013-10-01T14:57:15+02:00',
/* author */ ('bfaro'),
/* organization */ (''),
/* preprocessor_version */ 'ST-DEVELOPER v15.2',
/* originating_system */ 'Autodesk Inventor 2014',
/* authorisation */ '');

FILE_SCHEMA (('AUTOMOTIVE_DESIGN { 1 0 10303 214 3 1 1 }'));
ENDSEC;

DATA;
#10=SHAPE_REPRESENTATION_RELATIONSHIP('SRR','None',#461,#11);
#11=ADVANCED_BREP_SHAPE_REPRESENTATION($,(#250),#452);
#12=STYLED_ITEM($,(#469),#250);
#13=PLANE($,#264);
#14=PLANE($,#289);
#15=PLANE($,#290);
#16=PLANE($,#291);
#17=PLANE($,#292);
#18=PLANE($,#293);
#19=PLANE($,#294);
#20=PLANE($,#295);
#21=FACE_BOUND($,#70,.T.);
#22=FACE_BOUND($,#72,.T.);
#23=FACE_BOUND($,#74,.T.);
#24=FACE_BOUND($,#76,.T.);
#25=FACE_BOUND($,#77,.T.);
#26=FACE_BOUND($,#78,.T.);
#27=FACE_BOUND($,#80,.T.);
#28=FACE_BOUND($,#82,.T.);
#29=FACE_BOUND($,#84,.T.);
#30=FACE_BOUND($,#86,.T.);
#31=FACE_BOUND($,#88,.T.);
#32=FACE_BOUND($,#90,.T.);
#33=FACE_BOUND($,#92,.T.);
#34=FACE_BOUND($,#94,.T.);
#35=FACE_BOUND($,#95,.T.);
#36=FACE_BOUND($,#96,.T.);
#37=FACE_BOUND($,#97,.T.);
#38=FACE_BOUND($,#98,.T.);
#39=FACE_BOUND($,#100,.T.);
#40=FACE_BOUND($,#102,.T.);
#41=FACE_BOUND($,#103,.T.);
#42=FACE_BOUND($,#104,.T.);
#43=FACE_BOUND($,#106,.T.);
#44=FACE_BOUND($,#108,.T.);
#45=ELLIPSE($,#254,33.9411254969543,24.);
#46=ELLIPSE($,#255,33.9411254969543,24.);
#47=ELLIPSE($,#257,33.9411254969543,24.);
#48=ELLIPSE($,#258,33.9411254969543,24.);
#49=ELLIPSE($,#268,45.2548339959391,32.);
#50=ELLIPSE($,#269,45.2548339959391,32.);
#51=ELLIPSE($,#271,45.2548339959391,32.);
#52=ELLIPSE($,#272,45.2548339959391,32.);
#53=FACE_OUTER_BOUND($,#69,.T.);
#54=FACE_OUTER_BOUND($,#71,.T.);
#55=FACE_OUTER_BOUND($,#73,.T.);
#56=FACE_OUTER_BOUND($,#75,.T.);
#57=FACE_OUTER_BOUND($,#79,.T.);
#58=FACE_OUTER_BOUND($,#81,.T.);
#59=FACE_OUTER_BOUND($,#83,.T.);
#60=FACE_OUTER_BOUND($,#85,.T.);
#61=FACE_OUTER_BOUND($,#87,.T.);
#62=FACE_OUTER_BOUND($,#89,.T.);
#63=FACE_OUTER_BOUND($,#91,.T.);
#64=FACE_OUTER_BOUND($,#93,.T.);
#65=FACE_OUTER_BOUND($,#99,.T.);
#66=FACE_OUTER_BOUND($,#101,.T.);
#67=FACE_OUTER_BOUND($,#105,.T.);
#68=FACE_OUTER_BOUND($,#107,.T.);
#69=EDGE_LOOP($,(#169));
#70=EDGE_LOOP($,(#170,#171));
#71=EDGE_LOOP($,(#172,#173));
#72=EDGE_LOOP($,(#174));
#73=EDGE_LOOP($,(#175));
#74=EDGE_LOOP($,(#176,#177));
#75=EDGE_LOOP($,(#178,#179));
#76=EDGE_LOOP($,(#180));
#77=EDGE_LOOP($,(#181));
#78=EDGE_LOOP($,(#182));
#79=EDGE_LOOP($,(#183));
#80=EDGE_LOOP($,(#184,#185));
#81=EDGE_LOOP($,(#186,#187));
#82=EDGE_LOOP($,(#188));
#83=EDGE_LOOP($,(#189));
#84=EDGE_LOOP($,(#190));
#85=EDGE_LOOP($,(#191));
#86=EDGE_LOOP($,(#192));
#87=EDGE_LOOP($,(#193));
#88=EDGE_LOOP($,(#194));
#89=EDGE_LOOP($,(#195));
#90=EDGE_LOOP($,(#196));
#91=EDGE_LOOP($,(#197));
#92=EDGE_LOOP($,(#198,#199));
#93=EDGE_LOOP($,(#200,#201));
#94=EDGE_LOOP($,(#202));
#95=EDGE_LOOP($,(#203));
#96=EDGE_LOOP($,(#204));
#97=EDGE_LOOP($,(#205));
#98=EDGE_LOOP($,(#206));
#99=EDGE_LOOP($,(#207));
#100=EDGE_LOOP($,(#208));
#101=EDGE_LOOP($,(#209));
#102=EDGE_LOOP($,(#210));
#103=EDGE_LOOP($,(#211));
#104=EDGE_LOOP($,(#212));
#105=EDGE_LOOP($,(#213));
#106=EDGE_LOOP($,(#214));
#107=EDGE_LOOP($,(#215));
#108=EDGE_LOOP($,(#216));
#109=CIRCLE($,#253,24.);
#110=CIRCLE($,#259,24.);
#111=CIRCLE($,#261,24.);
#112=CIRCLE($,#263,24.);
#113=CIRCLE($,#265,25.0000000000001);
#114=CIRCLE($,#267,32.);
#115=CIRCLE($,#273,32.);
#116=CIRCLE($,#275,25.0000000000001);
#117=CIRCLE($,#276,25.);
#118=CIRCLE($,#278,25.);
#119=CIRCLE($,#279,25.0000000000001);
#120=CIRCLE($,#281,25.);
#121=CIRCLE($,#282,25.);
#122=CIRCLE($,#284,25.);
#123=CIRCLE($,#286,32.);
#124=CIRCLE($,#288,32.);
#125=VERTEX_POINT($,#388);
#126=VERTEX_POINT($,#390);
#127=VERTEX_POINT($,#391);
#128=VERTEX_POINT($,#397);
#129=VERTEX_POINT($,#400);
#130=VERTEX_POINT($,#403);
#131=VERTEX_POINT($,#406);
#132=VERTEX_POINT($,#409);
#133=VERTEX_POINT($,#411);
#134=VERTEX_POINT($,#412);
#135=VERTEX_POINT($,#418);
#136=VERTEX_POINT($,#421);
#137=VERTEX_POINT($,#423);
#138=VERTEX_POINT($,#426);
#139=VERTEX_POINT($,#428);
#140=VERTEX_POINT($,#431);
#141=VERTEX_POINT($,#433);
#142=VERTEX_POINT($,#436);
#143=VERTEX_POINT($,#439);
#144=VERTEX_POINT($,#442);
#145=EDGE_CURVE($,#125,#125,#109,.T.);
#146=EDGE_CURVE($,#126,#127,#45,.T.);
#147=EDGE_CURVE($,#127,#126,#46,.T.);
#148=EDGE_CURVE($,#127,#126,#47,.T.);
#149=EDGE_CURVE($,#126,#127,#48,.T.);
#150=EDGE_CURVE($,#128,#128,#110,.T.);
#151=EDGE_CURVE($,#129,#129,#111,.T.);
#152=EDGE_CURVE($,#130,#130,#112,.T.);
#153=EDGE_CURVE($,#131,#131,#113,.T.);
#154=EDGE_CURVE($,#132,#132,#114,.T.);
#155=EDGE_CURVE($,#133,#134,#49,.T.);
#156=EDGE_CURVE($,#134,#133,#50,.T.);
#157=EDGE_CURVE($,#134,#133,#51,.T.);
#158=EDGE_CURVE($,#133,#134,#52,.T.);
#159=EDGE_CURVE($,#135,#135,#115,.T.);
#160=EDGE_CURVE($,#136,#136,#116,.T.);
#161=EDGE_CURVE($,#137,#137,#117,.T.);
#162=EDGE_CURVE($,#138,#138,#118,.T.);
#163=EDGE_CURVE($,#139,#139,#119,.T.);
#164=EDGE_CURVE($,#140,#140,#120,.T.);
#165=EDGE_CURVE($,#141,#141,#121,.T.);
#166=EDGE_CURVE($,#142,#142,#122,.T.);
#167=EDGE_CURVE($,#143,#143,#123,.T.);
#168=EDGE_CURVE($,#144,#144,#124,.T.);
#169=ORIENTED_EDGE($,*,*,#145,.F.);
#170=ORIENTED_EDGE($,*,*,#146,.F.);
#171=ORIENTED_EDGE($,*,*,#147,.F.);
#172=ORIENTED_EDGE($,*,*,#148,.F.);
#173=ORIENTED_EDGE($,*,*,#149,.F.);
#174=ORIENTED_EDGE($,*,*,#150,.F.);
#175=ORIENTED_EDGE($,*,*,#151,.T.);
#176=ORIENTED_EDGE($,*,*,#149,.T.);
#177=ORIENTED_EDGE($,*,*,#147,.T.);
#178=ORIENTED_EDGE($,*,*,#148,.T.);
#179=ORIENTED_EDGE($,*,*,#146,.T.);
#180=ORIENTED_EDGE($,*,*,#152,.T.);
#181=ORIENTED_EDGE($,*,*,#151,.F.);
#182=ORIENTED_EDGE($,*,*,#153,.T.);
#183=ORIENTED_EDGE($,*,*,#154,.F.);
#184=ORIENTED_EDGE($,*,*,#155,.F.);
#185=ORIENTED_EDGE($,*,*,#156,.F.);
#186=ORIENTED_EDGE($,*,*,#157,.F.);
#187=ORIENTED_EDGE($,*,*,#158,.F.);
#188=ORIENTED_EDGE($,*,*,#159,.T.);
#189=ORIENTED_EDGE($,*,*,#160,.F.);
#190=ORIENTED_EDGE($,*,*,#161,.F.);
#191=ORIENTED_EDGE($,*,*,#162,.F.);
#192=ORIENTED_EDGE($,*,*,#163,.T.);
#193=ORIENTED_EDGE($,*,*,#164,.F.);
#194=ORIENTED_EDGE($,*,*,#165,.T.);
#195=ORIENTED_EDGE($,*,*,#153,.F.);
#196=ORIENTED_EDGE($,*,*,#166,.F.);
#197=ORIENTED_EDGE($,*,*,#167,.F.);
#198=ORIENTED_EDGE($,*,*,#156,.T.);
#199=ORIENTED_EDGE($,*,*,#158,.T.);
#200=ORIENTED_EDGE($,*,*,#155,.T.);
#201=ORIENTED_EDGE($,*,*,#157,.T.);
#202=ORIENTED_EDGE($,*,*,#168,.T.);
#203=ORIENTED_EDGE($,*,*,#145,.T.);
#204=ORIENTED_EDGE($,*,*,#160,.T.);
#205=ORIENTED_EDGE($,*,*,#150,.T.);
#206=ORIENTED_EDGE($,*,*,#163,.F.);
#207=ORIENTED_EDGE($,*,*,#159,.F.);
#208=ORIENTED_EDGE($,*,*,#162,.T.);
#209=ORIENTED_EDGE($,*,*,#154,.T.);
#210=ORIENTED_EDGE($,*,*,#161,.T.);
#211=ORIENTED_EDGE($,*,*,#152,.F.);
#212=ORIENTED_EDGE($,*,*,#165,.F.);
#213=ORIENTED_EDGE($,*,*,#168,.F.);
#214=ORIENTED_EDGE($,*,*,#164,.T.);
#215=ORIENTED_EDGE($,*,*,#167,.T.);
#216=ORIENTED_EDGE($,*,*,#166,.T.);
#217=CYLINDRICAL_SURFACE($,#252,24.);
#218=CYLINDRICAL_SURFACE($,#256,24.);
#219=CYLINDRICAL_SURFACE($,#260,24.);
#220=CYLINDRICAL_SURFACE($,#262,24.);
#221=CYLINDRICAL_SURFACE($,#266,32.);
#222=CYLINDRICAL_SURFACE($,#270,32.);
#223=CYLINDRICAL_SURFACE($,#274,25.);
#224=CYLINDRICAL_SURFACE($,#277,25.);
#225=CYLINDRICAL_SURFACE($,#280,25.);
#226=CYLINDRICAL_SURFACE($,#283,25.);
#227=CYLINDRICAL_SURFACE($,#285,32.);
#228=CYLINDRICAL_SURFACE($,#287,32.);
#229=ADVANCED_FACE($,(#53,#21),#217,.F.);
#230=ADVANCED_FACE($,(#54,#22),#218,.F.);
#231=ADVANCED_FACE($,(#55,#23),#219,.F.);
#232=ADVANCED_FACE($,(#56,#24),#220,.F.);
#233=ADVANCED_FACE($,(#25,#26),#13,.T.);
#234=ADVANCED_FACE($,(#57,#27),#221,.T.);
#235=ADVANCED_FACE($,(#58,#28),#222,.T.);
#236=ADVANCED_FACE($,(#59,#29),#223,.F.);
#237=ADVANCED_FACE($,(#60,#30),#224,.F.);
#238=ADVANCED_FACE($,(#61,#31),#225,.F.);
#239=ADVANCED_FACE($,(#62,#32),#226,.F.);
#240=ADVANCED_FACE($,(#63,#33),#227,.T.);
#241=ADVANCED_FACE($,(#64,#34),#228,.T.);
#242=ADVANCED_FACE($,(#35,#36),#14,.T.);
#243=ADVANCED_FACE($,(#37,#38),#15,.T.);
#244=ADVANCED_FACE($,(#65,#39),#16,.T.);
#245=ADVANCED_FACE($,(#66,#40),#17,.T.);
#246=ADVANCED_FACE($,(#41,#42),#18,.T.);
#247=ADVANCED_FACE($,(#67,#43),#19,.T.);
#248=ADVANCED_FACE($,(#68,#44),#20,.T.);
#249=CLOSED_SHELL($,(#229,#230,#231,#232,#233,#234,#235,#236,#237,#238,
#239,#240,#241,#242,#243,#244,#245,#246,#247,#248));
#250=MANIFOLD_SOLID_BREP('Solido1',#249);
#251=AXIS2_PLACEMENT_3D('placement',#386,#296,#297);
#252=AXIS2_PLACEMENT_3D($,#387,#298,#299);
#253=AXIS2_PLACEMENT_3D($,#389,#300,#301);
#254=AXIS2_PLACEMENT_3D($,#392,#302,#303);
#255=AXIS2_PLACEMENT_3D($,#393,#304,#305);
#256=AXIS2_PLACEMENT_3D($,#394,#306,#307);
#257=AXIS2_PLACEMENT_3D($,#395,#308,#309);
#258=AXIS2_PLACEMENT_3D($,#396,#310,#311);
#259=AXIS2_PLACEMENT_3D($,#398,#312,#313);
#260=AXIS2_PLACEMENT_3D($,#399,#314,#315);
#261=AXIS2_PLACEMENT_3D($,#401,#316,#317);
#262=AXIS2_PLACEMENT_3D($,#402,#318,#319);
#263=AXIS2_PLACEMENT_3D($,#404,#320,#321);
#264=AXIS2_PLACEMENT_3D($,#405,#322,#323);
#265=AXIS2_PLACEMENT_3D($,#407,#324,#325);
#266=AXIS2_PLACEMENT_3D($,#408,#326,#327);
#267=AXIS2_PLACEMENT_3D($,#410,#328,#329);
#268=AXIS2_PLACEMENT_3D($,#413,#330,#331);
#269=AXIS2_PLACEMENT_3D($,#414,#332,#333);
#270=AXIS2_PLACEMENT_3D($,#415,#334,#335);
#271=AXIS2_PLACEMENT_3D($,#416,#336,#337);
#272=AXIS2_PLACEMENT_3D($,#417,#338,#339);
#273=AXIS2_PLACEMENT_3D($,#419,#340,#341);
#274=AXIS2_PLACEMENT_3D($,#420,#342,#343);
#275=AXIS2_PLACEMENT_3D($,#422,#344,#345);
#276=AXIS2_PLACEMENT_3D($,#424,#346,#347);
#277=AXIS2_PLACEMENT_3D($,#425,#348,#349);
#278=AXIS2_PLACEMENT_3D($,#427,#350,#351);
#279=AXIS2_PLACEMENT_3D($,#429,#352,#353);
#280=AXIS2_PLACEMENT_3D($,#430,#354,#355);
#281=AXIS2_PLACEMENT_3D($,#432,#356,#357);
#282=AXIS2_PLACEMENT_3D($,#434,#358,#359);
#283=AXIS2_PLACEMENT_3D($,#435,#360,#361);
#284=AXIS2_PLACEMENT_3D($,#437,#362,#363);
#285=AXIS2_PLACEMENT_3D($,#438,#364,#365);
#286=AXIS2_PLACEMENT_3D($,#440,#366,#367);
#287=AXIS2_PLACEMENT_3D($,#441,#368,#369);
#288=AXIS2_PLACEMENT_3D($,#443,#370,#371);
#289=AXIS2_PLACEMENT_3D($,#444,#372,#373);
#290=AXIS2_PLACEMENT_3D($,#445,#374,#375);
#291=AXIS2_PLACEMENT_3D($,#446,#376,#377);
#292=AXIS2_PLACEMENT_3D($,#447,#378,#379);
#293=AXIS2_PLACEMENT_3D($,#448,#380,#381);
#294=AXIS2_PLACEMENT_3D($,#449,#382,#383);
#295=AXIS2_PLACEMENT_3D($,#450,#384,#385);
#296=DIRECTION('axis',(0.,0.,1.));
#297=DIRECTION('refdir',(1.,0.,0.));
#298=DIRECTION('center_axis',(-1.,0.,0.));
#299=DIRECTION('ref_axis',(0.,0.,1.));
#300=DIRECTION('center_axis',(1.,0.,0.));
#301=DIRECTION('ref_axis',(0.,0.,1.));
#302=DIRECTION('center_axis',(-0.707106781186547,-0.707106781186548,0.));
#303=DIRECTION('ref_axis',(-0.707106781186548,0.707106781186547,0.));
#304=DIRECTION('center_axis',(-0.707106781186547,0.707106781186548,0.));
#305=DIRECTION('ref_axis',(0.707106781186548,0.707106781186547,0.));
#306=DIRECTION('center_axis',(-1.,0.,0.));
#307=DIRECTION('ref_axis',(0.,0.,1.));
#308=DIRECTION('center_axis',(0.707106781186547,-0.707106781186548,0.));
#309=DIRECTION('ref_axis',(0.707106781186548,0.707106781186547,0.));
#310=DIRECTION('center_axis',(0.707106781186547,0.707106781186548,0.));
#311=DIRECTION('ref_axis',(-0.707106781186548,0.707106781186547,0.));
#312=DIRECTION('center_axis',(-1.,0.,0.));
#313=DIRECTION('ref_axis',(0.,0.,1.));
#314=DIRECTION('center_axis',(0.,-1.,0.));
#315=DIRECTION('ref_axis',(-1.,0.,0.));
#316=DIRECTION('center_axis',(0.,-1.,0.));
#317=DIRECTION('ref_axis',(-1.,0.,0.));
#318=DIRECTION('center_axis',(0.,-1.,0.));
#319=DIRECTION('ref_axis',(-1.,0.,0.));
#320=DIRECTION('center_axis',(0.,1.,0.));
#321=DIRECTION('ref_axis',(-1.,0.,0.));
#322=DIRECTION('center_axis',(0.,-1.,0.));
#323=DIRECTION('ref_axis',(0.,0.,-1.));
#324=DIRECTION('center_axis',(0.,-1.,0.));
#325=DIRECTION('ref_axis',(1.,0.,0.));
#326=DIRECTION('center_axis',(1.,0.,0.));
#327=DIRECTION('ref_axis',(0.,-1.,0.));
#328=DIRECTION('center_axis',(-1.,0.,0.));
#329=DIRECTION('ref_axis',(0.,-1.,0.));
#330=DIRECTION('center_axis',(0.707106781186548,0.707106781186547,0.));
#331=DIRECTION('ref_axis',(0.707106781186547,-0.707106781186548,0.));
#332=DIRECTION('center_axis',(0.707106781186548,-0.707106781186548,0.));
#333=DIRECTION('ref_axis',(-0.707106781186548,-0.707106781186548,0.));
#334=DIRECTION('center_axis',(1.,0.,0.));
#335=DIRECTION('ref_axis',(0.,-1.,0.));
#336=DIRECTION('center_axis',(-0.707106781186548,0.707106781186548,0.));
#337=DIRECTION('ref_axis',(-0.707106781186548,-0.707106781186548,0.));
#338=DIRECTION('center_axis',(-0.707106781186548,-0.707106781186547,0.));
#339=DIRECTION('ref_axis',(0.707106781186547,-0.707106781186548,0.));
#340=DIRECTION('center_axis',(-1.,0.,0.));
#341=DIRECTION('ref_axis',(0.,-1.,0.));
#342=DIRECTION('center_axis',(1.,0.,0.));
#343=DIRECTION('ref_axis',(0.,-1.,0.));
#344=DIRECTION('center_axis',(-1.,0.,0.));
#345=DIRECTION('ref_axis',(0.,-1.,0.));
#346=DIRECTION('center_axis',(1.,0.,0.));
#347=DIRECTION('ref_axis',(0.,-1.,0.));
#348=DIRECTION('center_axis',(1.,0.,0.));
#349=DIRECTION('ref_axis',(0.,-1.,0.));
#350=DIRECTION('center_axis',(-1.,0.,0.));
#351=DIRECTION('ref_axis',(0.,-1.,0.));
#352=DIRECTION('center_axis',(-1.,0.,0.));
#353=DIRECTION('ref_axis',(0.,-1.,0.));
#354=DIRECTION('center_axis',(0.,1.,0.));
#355=DIRECTION('ref_axis',(1.,0.,0.));
#356=DIRECTION('center_axis',(0.,-1.,0.));
#357=DIRECTION('ref_axis',(1.,0.,0.));
#358=DIRECTION('center_axis',(0.,-1.,0.));
#359=DIRECTION('ref_axis',(1.,0.,0.));
#360=DIRECTION('center_axis',(0.,1.,0.));
#361=DIRECTION('ref_axis',(1.,0.,0.));
#362=DIRECTION('center_axis',(0.,1.,0.));
#363=DIRECTION('ref_axis',(1.,0.,0.));
#364=DIRECTION('center_axis',(0.,1.,0.));
#365=DIRECTION('ref_axis',(1.,0.,0.));
#366=DIRECTION('center_axis',(0.,-1.,0.));
#367=DIRECTION('ref_axis',(1.,0.,0.));
#368=DIRECTION('center_axis',(0.,1.,0.));
#369=DIRECTION('ref_axis',(1.,0.,0.));
#370=DIRECTION('center_axis',(0.,-1.,0.));
#371=DIRECTION('ref_axis',(1.,0.,0.));
#372=DIRECTION('center_axis',(-1.,0.,0.));
#373=DIRECTION('ref_axis',(0.,0.,1.));
#374=DIRECTION('center_axis',(1.,0.,0.));
#375=DIRECTION('ref_axis',(0.,0.,-1.));
#376=DIRECTION('center_axis',(1.,0.,0.));
#377=DIRECTION('ref_axis',(0.,0.,-1.));
#378=DIRECTION('center_axis',(-1.,0.,0.));
#379=DIRECTION('ref_axis',(0.,0.,1.));
#380=DIRECTION('center_axis',(0.,1.,0.));
#381=DIRECTION('ref_axis',(0.,0.,1.));
#382=DIRECTION('center_axis',(0.,1.,0.));
#383=DIRECTION('ref_axis',(0.,0.,1.));
#384=DIRECTION('center_axis',(0.,-1.,0.));
#385=DIRECTION('ref_axis',(0.,0.,-1.));
#386=CARTESIAN_POINT('',(0.,0.,0.));
#387=CARTESIAN_POINT('Origin',(85.,532.67171974362,-44.5917468847976));
#388=CARTESIAN_POINT('',(31.,532.67171974362,-68.5917468847976));
#389=CARTESIAN_POINT('Origin',(31.,532.67171974362,-44.5917468847976));
#390=CARTESIAN_POINT('',(58.,532.67171974362,-20.5917468847976));
#391=CARTESIAN_POINT('',(58.,532.67171974362,-68.5917468847976));
#392=CARTESIAN_POINT('Origin',(58.,532.67171974362,-44.5917468847976));
#393=CARTESIAN_POINT('Origin',(58.,532.67171974362,-44.5917468847976));
#394=CARTESIAN_POINT('Origin',(85.,532.67171974362,-44.5917468847976));
#395=CARTESIAN_POINT('Origin',(58.,532.67171974362,-44.5917468847976));
#396=CARTESIAN_POINT('Origin',(58.,532.67171974362,-44.5917468847976));
#397=CARTESIAN_POINT('',(85.,532.67171974362,-68.5917468847976));
#398=CARTESIAN_POINT('Origin',(85.,532.67171974362,-44.5917468847976));
#399=CARTESIAN_POINT('Origin',(58.,505.67171974362,-44.5917468847976));
#400=CARTESIAN_POINT('',(74.7630546142402,505.67171974362,-61.7673109221153));
#401=CARTESIAN_POINT('Origin',(58.,505.67171974362,-44.5917468847976));
#402=CARTESIAN_POINT('Origin',(58.,505.67171974362,-44.5917468847976));
#403=CARTESIAN_POINT('',(74.7630546142403,559.67171974362,-27.41618284748));
#404=CARTESIAN_POINT('Origin',(58.,559.67171974362,-44.5917468847976));
#405=CARTESIAN_POINT('Origin',(58.,505.67171974362,-44.5917468847976));
#406=CARTESIAN_POINT('',(83.,505.67171974362,-44.5917468847976));
#407=CARTESIAN_POINT('Origin',(58.,505.67171974362,-44.5917468847976));
#408=CARTESIAN_POINT('Origin',(-3.261566E-014,532.67171974362,-44.5917468847976));
#409=CARTESIAN_POINT('',(-3.065629E-014,564.67171974362,-44.5917468847976));
#410=CARTESIAN_POINT('Origin',(-3.261566E-014,532.67171974362,-44.5917468847976));
#411=CARTESIAN_POINT('',(58.,532.67171974362,-76.5917468847976));
#412=CARTESIAN_POINT('',(58.,532.67171974362,-12.5917468847976));
#413=CARTESIAN_POINT('Origin',(58.,532.67171974362,-44.5917468847976));
#414=CARTESIAN_POINT('Origin',(58.,532.67171974362,-44.5917468847976));
#415=CARTESIAN_POINT('Origin',(-3.261566E-014,532.67171974362,-44.5917468847976));
#416=CARTESIAN_POINT('Origin',(58.,532.67171974362,-44.5917468847976));
#417=CARTESIAN_POINT('Origin',(58.,532.67171974362,-44.5917468847976));
#418=CARTESIAN_POINT('',(116.,564.67171974362,-44.5917468847976));
#419=CARTESIAN_POINT('Origin',(116.,532.67171974362,-44.5917468847976));
#420=CARTESIAN_POINT('Origin',(15.5,532.67171974362,-44.5917468847976));
#421=CARTESIAN_POINT('',(31.,514.505817619035,-61.7673109221153));
#422=CARTESIAN_POINT('Origin',(31.,532.67171974362,-44.5917468847976));
#423=CARTESIAN_POINT('',(-3.261566E-014,557.67171974362,-44.5917468847976));
#424=CARTESIAN_POINT('Origin',(-3.261566E-014,532.67171974362,-44.5917468847976));
#425=CARTESIAN_POINT('Origin',(100.5,532.67171974362,-44.5917468847976));
#426=CARTESIAN_POINT('',(116.,557.67171974362,-44.5917468847976));
#427=CARTESIAN_POINT('Origin',(116.,532.67171974362,-44.5917468847976));
#428=CARTESIAN_POINT('',(85.,532.67171974362,-69.5917468847976));
#429=CARTESIAN_POINT('Origin',(85.,532.67171974362,-44.5917468847976));
#430=CARTESIAN_POINT('Origin',(58.,575.17171974362,-44.5917468847976));
#431=CARTESIAN_POINT('',(33.,590.67171974362,-44.5917468847976));
#432=CARTESIAN_POINT('Origin',(58.,590.67171974362,-44.5917468847976));
#433=CARTESIAN_POINT('',(83.,559.67171974362,-44.5917468847976));
#434=CARTESIAN_POINT('Origin',(58.,559.67171974362,-44.5917468847976));
#435=CARTESIAN_POINT('Origin',(58.,490.17171974362,-44.5917468847976));
#436=CARTESIAN_POINT('',(33.,474.67171974362,-44.5917468847976));
#437=CARTESIAN_POINT('Origin',(58.,474.67171974362,-44.5917468847976));
#438=CARTESIAN_POINT('Origin',(58.,474.67171974362,-44.5917468847976));
#439=CARTESIAN_POINT('',(26.,474.67171974362,-44.5917468847976));
#440=CARTESIAN_POINT('Origin',(58.,474.67171974362,-44.5917468847976));
#441=CARTESIAN_POINT('Origin',(58.,474.67171974362,-44.5917468847976));
#442=CARTESIAN_POINT('',(26.,590.67171974362,-44.5917468847976));
#443=CARTESIAN_POINT('Origin',(58.,590.67171974362,-44.5917468847976));
#444=CARTESIAN_POINT('Origin',(31.,532.67171974362,-44.5917468847976));
#445=CARTESIAN_POINT('Origin',(85.,532.671719743619,-44.5917468847977));
#446=CARTESIAN_POINT('Origin',(116.,532.67171974362,-44.5917468847976));
#447=CARTESIAN_POINT('Origin',(-3.261566E-014,532.671719743619,-44.5917468847977));
#448=CARTESIAN_POINT('Origin',(58.0000000000001,559.67171974362,-44.5917468847977));
#449=CARTESIAN_POINT('Origin',(58.,590.67171974362,-44.5917468847976));
#450=CARTESIAN_POINT('Origin',(58.0000000000001,474.67171974362,-44.5917468847977));
#451=UNCERTAINTY_MEASURE_WITH_UNIT(LENGTH_MEASURE(0.01),#453,
'DISTANCE_ACCURACY_VALUE',
'Maximum model space distance between geometric entities at asserted c
onnectivities');
#452=(
GEOMETRIC_REPRESENTATION_CONTEXT(3)
GLOBAL_UNCERTAINTY_ASSIGNED_CONTEXT((#451))
GLOBAL_UNIT_ASSIGNED_CONTEXT((#453,#456,#454))
REPRESENTATION_CONTEXT('','3D')
);
#453=(
LENGTH_UNIT()
NAMED_UNIT(*)
SI_UNIT(.MILLI.,.METRE.)
);
#454=(
NAMED_UNIT(*)
SI_UNIT($,.STERADIAN.)
SOLID_ANGLE_UNIT()
);
#455=DIMENSIONAL_EXPONENTS(0.,0.,0.,0.,0.,0.,0.);
#456=(
CONVERSION_BASED_UNIT('degree',#458)
NAMED_UNIT(#455)
PLANE_ANGLE_UNIT()
);
#457=(
NAMED_UNIT(*)
PLANE_ANGLE_UNIT()
SI_UNIT($,.RADIAN.)
);
#458=PLANE_ANGLE_MEASURE_WITH_UNIT(PLANE_ANGLE_MEASURE(0.01745329252),#457);
#459=SHAPE_DEFINITION_REPRESENTATION(#460,#461);
#460=PRODUCT_DEFINITION_SHAPE('',$,#463);
#461=SHAPE_REPRESENTATION('',(#251),#452);
#462=PRODUCT_DEFINITION_CONTEXT('3D Mechanical Parts',#466,'design');
#463=PRODUCT_DEFINITION('XIV050','XIV050',#464,#462);
#464=PRODUCT_DEFINITION_FORMATION('',$,#468);
#465=APPLICATION_PROTOCOL_DEFINITION('international standard',
'automotive_design',2009,#466);
#466=APPLICATION_CONTEXT(
'Core Data for Automotive Mechanical Design Process');
#467=PRODUCT_CONTEXT('3D Mechanical Parts',#466,'mechanical');
#468=PRODUCT('XIV050','XIV050',$,(#467));
#469=PRESENTATION_STYLE_ASSIGNMENT((#470));
#470=SURFACE_STYLE_USAGE(.BOTH.,#471);
#471=SURFACE_SIDE_STYLE($,(#472));
#472=SURFACE_STYLE_FILL_AREA(#473);
#473=FILL_AREA_STYLE($,(#474));
#474=FILL_AREA_STYLE_COLOUR($,#475);
#475=COLOUR_RGB('',0.509803921568627,0.509803921568627,0.588235294117647);
ENDSEC;
END-ISO-10303-21;
