ISO-10303-21;
HEADER;
FILE_DESCRIPTION( ( '' ), '1' );
FILE_NAME( '//se01002/users/anro/AGRU_25713003211_PE_100_schwarz_Rohr_100m_gerollt_32X3_0__SDR11__ISO_S-5_05.stp', '2017-12-11T12:50:44', ( '' ), ( '' ), ' ', ' ', ' ' );
FILE_SCHEMA( ( 'automotive_design' ) );
ENDSEC;
DATA;
#1 = MECHANICAL_DESIGN_GEOMETRIC_PRESENTATION_REPRESENTATION( ' ', ( #10, #11, #12, #13, #14, #15, #16, #17, #18, #19, #20, #21, #22, #23, #24, #25, #26, #27, #28, #29, #30, #31, #32, #33, #34, #35, #36 ), #6 );
#2 = PRODUCT_DEFINITION_CONTEXT( '', #37, 'design' );
#3 = APPLICATION_PROTOCOL_DEFINITION( 'INTERNATIONAL STANDARD', 'automotive_design', 1994, #37 );
#4 = PRODUCT_CATEGORY_RELATIONSHIP( 'NONE', 'NONE', #38, #39 );
#5 = SHAPE_DEFINITION_REPRESENTATION( #40, #41 );
#6 =  ( GEOMETRIC_REPRESENTATION_CONTEXT( 3 )GLOBAL_UNCERTAINTY_ASSIGNED_CONTEXT( ( #44 ) )GLOBAL_UNIT_ASSIGNED_CONTEXT( ( #46, #47, #48 ) )REPRESENTATION_CONTEXT( 'NONE', 'WORKSPACE' ) );
#10 = STYLED_ITEM( '', ( #50 ), #51 );
#11 = STYLED_ITEM( '', ( #52 ), #53 );
#12 = STYLED_ITEM( '', ( #54 ), #55 );
#13 = STYLED_ITEM( '', ( #56 ), #57 );
#14 = STYLED_ITEM( '', ( #58 ), #59 );
#15 = STYLED_ITEM( '', ( #60 ), #61 );
#16 = STYLED_ITEM( '', ( #62 ), #63 );
#17 = STYLED_ITEM( '', ( #64 ), #65 );
#18 = STYLED_ITEM( '', ( #66 ), #67 );
#19 = STYLED_ITEM( '', ( #68 ), #69 );
#20 = STYLED_ITEM( '', ( #70 ), #71 );
#21 = STYLED_ITEM( '', ( #72 ), #73 );
#22 = STYLED_ITEM( '', ( #74 ), #75 );
#23 = STYLED_ITEM( '', ( #76 ), #77 );
#24 = STYLED_ITEM( '', ( #78 ), #79 );
#25 = STYLED_ITEM( '', ( #80 ), #81 );
#26 = STYLED_ITEM( '', ( #82 ), #83 );
#27 = STYLED_ITEM( '', ( #84 ), #85 );
#28 = STYLED_ITEM( '', ( #86 ), #87 );
#29 = STYLED_ITEM( '', ( #88 ), #89 );
#30 = STYLED_ITEM( '', ( #90 ), #91 );
#31 = STYLED_ITEM( '', ( #92 ), #93 );
#32 = STYLED_ITEM( '', ( #94 ), #95 );
#33 = STYLED_ITEM( '', ( #96 ), #97 );
#34 = STYLED_ITEM( '', ( #98 ), #99 );
#35 = STYLED_ITEM( '', ( #100 ), #101 );
#36 = STYLED_ITEM( '', ( #102 ), #103 );
#37 = APPLICATION_CONTEXT( ' ' );
#38 = PRODUCT_CATEGORY( 'part', 'NONE' );
#39 = PRODUCT_RELATED_PRODUCT_CATEGORY( 'detail', ' ', ( #104 ) );
#40 = PRODUCT_DEFINITION_SHAPE( 'NONE', 'NONE', #105 );
#41 = ADVANCED_BREP_SHAPE_REPRESENTATION( '1', ( #53, #106 ), #6 );
#44 = UNCERTAINTY_MEASURE_WITH_UNIT( LENGTH_MEASURE( 1.00000000000000E-006 ), #46, '', '' );
#46 =  ( CONVERSION_BASED_UNIT( 'MILLIMETRE', #109 )LENGTH_UNIT(  )NAMED_UNIT( #112 ) );
#47 =  ( NAMED_UNIT( #114 )PLANE_ANGLE_UNIT(  )SI_UNIT( $, .RADIAN. ) );
#48 =  ( NAMED_UNIT( #114 )SOLID_ANGLE_UNIT(  )SI_UNIT( $, .STERADIAN. ) );
#50 = PRESENTATION_STYLE_ASSIGNMENT( ( #120 ) );
#51 = VERTEX_POINT( '', #121 );
#52 = PRESENTATION_STYLE_ASSIGNMENT( ( #122 ) );
#53 = MANIFOLD_SOLID_BREP( '1', #123 );
#54 = PRESENTATION_STYLE_ASSIGNMENT( ( #124 ) );
#55 = EDGE_CURVE( '', #87, #93, #125, .T. );
#56 = PRESENTATION_STYLE_ASSIGNMENT( ( #126 ) );
#57 = EDGE_CURVE( '', #93, #91, #127, .T. );
#58 = PRESENTATION_STYLE_ASSIGNMENT( ( #128 ) );
#59 = EDGE_CURVE( '', #65, #85, #129, .T. );
#60 = PRESENTATION_STYLE_ASSIGNMENT( ( #130 ) );
#61 = ADVANCED_FACE( '', ( #131 ), #132, .T. );
#62 = PRESENTATION_STYLE_ASSIGNMENT( ( #133 ) );
#63 = ADVANCED_FACE( '', ( #134, #135 ), #136, .F. );
#64 = PRESENTATION_STYLE_ASSIGNMENT( ( #137 ) );
#65 = VERTEX_POINT( '', #138 );
#66 = PRESENTATION_STYLE_ASSIGNMENT( ( #139 ) );
#67 = ADVANCED_FACE( '', ( #140 ), #141, .F. );
#68 = PRESENTATION_STYLE_ASSIGNMENT( ( #142 ) );
#69 = ADVANCED_FACE( '', ( #143 ), #144, .F. );
#70 = PRESENTATION_STYLE_ASSIGNMENT( ( #145 ) );
#71 = VERTEX_POINT( '', #146 );
#72 = PRESENTATION_STYLE_ASSIGNMENT( ( #147 ) );
#73 = EDGE_CURVE( '', #91, #95, #148, .T. );
#74 = PRESENTATION_STYLE_ASSIGNMENT( ( #149 ) );
#75 = EDGE_CURVE( '', #71, #85, #150, .T. );
#76 = PRESENTATION_STYLE_ASSIGNMENT( ( #151 ) );
#77 = EDGE_CURVE( '', #95, #87, #152, .T. );
#78 = PRESENTATION_STYLE_ASSIGNMENT( ( #153 ) );
#79 = EDGE_CURVE( '', #85, #65, #154, .T. );
#80 = PRESENTATION_STYLE_ASSIGNMENT( ( #155 ) );
#81 = EDGE_CURVE( '', #65, #51, #156, .T. );
#82 = PRESENTATION_STYLE_ASSIGNMENT( ( #157 ) );
#83 = EDGE_CURVE( '', #95, #91, #158, .T. );
#84 = PRESENTATION_STYLE_ASSIGNMENT( ( #159 ) );
#85 = VERTEX_POINT( '', #160 );
#86 = PRESENTATION_STYLE_ASSIGNMENT( ( #161 ) );
#87 = VERTEX_POINT( '', #162 );
#88 = PRESENTATION_STYLE_ASSIGNMENT( ( #163 ) );
#89 = EDGE_CURVE( '', #71, #51, #164, .T. );
#90 = PRESENTATION_STYLE_ASSIGNMENT( ( #165 ) );
#91 = VERTEX_POINT( '', #166 );
#92 = PRESENTATION_STYLE_ASSIGNMENT( ( #167 ) );
#93 = VERTEX_POINT( '', #168 );
#94 = PRESENTATION_STYLE_ASSIGNMENT( ( #169 ) );
#95 = VERTEX_POINT( '', #170 );
#96 = PRESENTATION_STYLE_ASSIGNMENT( ( #171 ) );
#97 = EDGE_CURVE( '', #93, #87, #172, .T. );
#98 = PRESENTATION_STYLE_ASSIGNMENT( ( #173 ) );
#99 = EDGE_CURVE( '', #51, #71, #174, .T. );
#100 = PRESENTATION_STYLE_ASSIGNMENT( ( #175 ) );
#101 = ADVANCED_FACE( '', ( #176 ), #177, .T. );
#102 = PRESENTATION_STYLE_ASSIGNMENT( ( #178 ) );
#103 = ADVANCED_FACE( '', ( #179, #180 ), #181, .T. );
#104 = PRODUCT( '1', '1', 'PART-1-DESC', ( #182 ) );
#105 = PRODUCT_DEFINITION( 'NONE', 'NONE', #183, #2 );
#106 = AXIS2_PLACEMENT_3D( '', #184, #185, #186 );
#109 = LENGTH_MEASURE_WITH_UNIT( LENGTH_MEASURE( 1.00000000000000 ), #187 );
#112 = DIMENSIONAL_EXPONENTS( 1.00000000000000, 0.000000000000000, 0.000000000000000, 0.000000000000000, 0.000000000000000, 0.000000000000000, 0.000000000000000 );
#114 = DIMENSIONAL_EXPONENTS( 0.000000000000000, 0.000000000000000, 0.000000000000000, 0.000000000000000, 0.000000000000000, 0.000000000000000, 0.000000000000000 );
#120 = POINT_STYLE( ' ', #188, POSITIVE_LENGTH_MEASURE( 1.00000000000000E-006 ), #189 );
#121 = CARTESIAN_POINT( '', ( 0.000000000000000, 1.95937016611580E-015, 16.0000000000000 ) );
#122 = SURFACE_STYLE_USAGE( .BOTH., #190 );
#123 = CLOSED_SHELL( '', ( #61, #67, #69, #101, #103, #63 ) );
#124 = CURVE_STYLE( '', #191, POSITIVE_LENGTH_MEASURE( 1.00000000000000E-006 ), #192 );
#125 = CIRCLE( '', #193, 13.0000000000000 );
#126 = CURVE_STYLE( '', #194, POSITIVE_LENGTH_MEASURE( 1.00000000000000E-006 ), #195 );
#127 = LINE( '', #196, #197 );
#128 = CURVE_STYLE( '', #198, POSITIVE_LENGTH_MEASURE( 1.00000000000000E-006 ), #199 );
#129 = CIRCLE( '', #200, 16.0000000000000 );
#130 = SURFACE_STYLE_USAGE( .BOTH., #201 );
#131 = FACE_OUTER_BOUND( '', #202, .T. );
#132 = CYLINDRICAL_SURFACE( '', #203, 16.0000000000000 );
#133 = SURFACE_STYLE_USAGE( .BOTH., #204 );
#134 = FACE_OUTER_BOUND( '', #205, .T. );
#135 = FACE_BOUND( '', #206, .T. );
#136 = PLANE( '', #207 );
#137 = POINT_STYLE( ' ', #208, POSITIVE_LENGTH_MEASURE( 1.00000000000000E-006 ), #209 );
#138 = CARTESIAN_POINT( '', ( 5000.00000000000, 1.95937016611580E-015, 16.0000000000000 ) );
#139 = SURFACE_STYLE_USAGE( .BOTH., #210 );
#140 = FACE_OUTER_BOUND( '', #211, .T. );
#141 = CYLINDRICAL_SURFACE( '', #212, 13.0000000000000 );
#142 = SURFACE_STYLE_USAGE( .BOTH., #213 );
#143 = FACE_OUTER_BOUND( '', #214, .T. );
#144 = CYLINDRICAL_SURFACE( '', #215, 13.0000000000000 );
#145 = POINT_STYLE( ' ', #216, POSITIVE_LENGTH_MEASURE( 1.00000000000000E-006 ), #217 );
#146 = CARTESIAN_POINT( '', ( 0.000000000000000, 0.000000000000000, -16.0000000000000 ) );
#147 = CURVE_STYLE( '', #218, POSITIVE_LENGTH_MEASURE( 1.00000000000000E-006 ), #219 );
#148 = CIRCLE( '', #220, 13.0000000000000 );
#149 = CURVE_STYLE( '', #221, POSITIVE_LENGTH_MEASURE( 1.00000000000000E-006 ), #222 );
#150 = LINE( '', #223, #224 );
#151 = CURVE_STYLE( '', #225, POSITIVE_LENGTH_MEASURE( 1.00000000000000E-006 ), #226 );
#152 = LINE( '', #227, #228 );
#153 = CURVE_STYLE( '', #229, POSITIVE_LENGTH_MEASURE( 1.00000000000000E-006 ), #230 );
#154 = CIRCLE( '', #231, 16.0000000000000 );
#155 = CURVE_STYLE( '', #232, POSITIVE_LENGTH_MEASURE( 1.00000000000000E-006 ), #233 );
#156 = LINE( '', #234, #235 );
#157 = CURVE_STYLE( '', #236, POSITIVE_LENGTH_MEASURE( 1.00000000000000E-006 ), #237 );
#158 = CIRCLE( '', #238, 13.0000000000000 );
#159 = POINT_STYLE( ' ', #239, POSITIVE_LENGTH_MEASURE( 1.00000000000000E-006 ), #240 );
#160 = CARTESIAN_POINT( '', ( 5000.00000000000, 0.000000000000000, -16.0000000000000 ) );
#161 = POINT_STYLE( ' ', #241, POSITIVE_LENGTH_MEASURE( 1.00000000000000E-006 ), #242 );
#162 = CARTESIAN_POINT( '', ( 0.000000000000000, 1.59198825996909E-015, 13.0000000000000 ) );
#163 = CURVE_STYLE( '', #243, POSITIVE_LENGTH_MEASURE( 1.00000000000000E-006 ), #244 );
#164 = CIRCLE( '', #245, 16.0000000000000 );
#165 = POINT_STYLE( ' ', #246, POSITIVE_LENGTH_MEASURE( 1.00000000000000E-006 ), #247 );
#166 = CARTESIAN_POINT( '', ( 5000.00000000000, 0.000000000000000, -13.0000000000000 ) );
#167 = POINT_STYLE( ' ', #248, POSITIVE_LENGTH_MEASURE( 1.00000000000000E-006 ), #249 );
#168 = CARTESIAN_POINT( '', ( 0.000000000000000, 0.000000000000000, -13.0000000000000 ) );
#169 = POINT_STYLE( ' ', #250, POSITIVE_LENGTH_MEASURE( 1.00000000000000E-006 ), #251 );
#170 = CARTESIAN_POINT( '', ( 5000.00000000000, 1.59198825996909E-015, 13.0000000000000 ) );
#171 = CURVE_STYLE( '', #252, POSITIVE_LENGTH_MEASURE( 1.00000000000000E-006 ), #253 );
#172 = CIRCLE( '', #254, 13.0000000000000 );
#173 = CURVE_STYLE( '', #255, POSITIVE_LENGTH_MEASURE( 1.00000000000000E-006 ), #256 );
#174 = CIRCLE( '', #257, 16.0000000000000 );
#175 = SURFACE_STYLE_USAGE( .BOTH., #258 );
#176 = FACE_OUTER_BOUND( '', #259, .T. );
#177 = CYLINDRICAL_SURFACE( '', #260, 16.0000000000000 );
#178 = SURFACE_STYLE_USAGE( .BOTH., #261 );
#179 = FACE_OUTER_BOUND( '', #262, .T. );
#180 = FACE_BOUND( '', #263, .T. );
#181 = PLANE( '', #264 );
#182 = PRODUCT_CONTEXT( '', #37, 'mechanical' );
#183 = PRODUCT_DEFINITION_FORMATION_WITH_SPECIFIED_SOURCE( ' ', 'NONE', #104, .NOT_KNOWN. );
#184 = CARTESIAN_POINT( '', ( 0.000000000000000, 0.000000000000000, 0.000000000000000 ) );
#185 = DIRECTION( '', ( 0.000000000000000, 0.000000000000000, 1.00000000000000 ) );
#186 = DIRECTION( '', ( 1.00000000000000, 0.000000000000000, 0.000000000000000 ) );
#187 =  ( NAMED_UNIT( #112 )LENGTH_UNIT(  )SI_UNIT( .MILLI., .METRE. ) );
#188 = PRE_DEFINED_MARKER( '' );
#189 = COLOUR_RGB( '', 0.689999997615810, 0.689999997615810, 0.689999997615810 );
#190 = SURFACE_SIDE_STYLE( '', ( #266 ) );
#191 = DRAUGHTING_PRE_DEFINED_CURVE_FONT( 'continuous' );
#192 = COLOUR_RGB( '', 0.689999997615810, 0.689999997615810, 0.689999997615810 );
#193 = AXIS2_PLACEMENT_3D( '', #267, #268, #269 );
#194 = DRAUGHTING_PRE_DEFINED_CURVE_FONT( 'continuous' );
#195 = COLOUR_RGB( '', 0.689999997615810, 0.689999997615810, 0.689999997615810 );
#196 = CARTESIAN_POINT( '', ( 0.000000000000000, -1.59198825996909E-015, -13.0000000000000 ) );
#197 = VECTOR( '', #270, 1.00000000000000 );
#198 = DRAUGHTING_PRE_DEFINED_CURVE_FONT( 'continuous' );
#199 = COLOUR_RGB( '', 0.689999997615810, 0.689999997615810, 0.689999997615810 );
#200 = AXIS2_PLACEMENT_3D( '', #271, #272, #273 );
#201 = SURFACE_SIDE_STYLE( '', ( #274 ) );
#202 = EDGE_LOOP( '', ( #275, #276, #277, #278 ) );
#203 = AXIS2_PLACEMENT_3D( '', #279, #280, #281 );
#204 = SURFACE_SIDE_STYLE( '', ( #282 ) );
#205 = EDGE_LOOP( '', ( #283, #284 ) );
#206 = EDGE_LOOP( '', ( #285, #286 ) );
#207 = AXIS2_PLACEMENT_3D( '', #287, #288, #289 );
#208 = PRE_DEFINED_MARKER( '' );
#209 = COLOUR_RGB( '', 0.689999997615810, 0.689999997615810, 0.689999997615810 );
#210 = SURFACE_SIDE_STYLE( '', ( #290 ) );
#211 = EDGE_LOOP( '', ( #291, #292, #293, #294 ) );
#212 = AXIS2_PLACEMENT_3D( '', #295, #296, #297 );
#213 = SURFACE_SIDE_STYLE( '', ( #298 ) );
#214 = EDGE_LOOP( '', ( #299, #300, #301, #302 ) );
#215 = AXIS2_PLACEMENT_3D( '', #303, #304, #305 );
#216 = PRE_DEFINED_MARKER( '' );
#217 = COLOUR_RGB( '', 0.689999997615810, 0.689999997615810, 0.689999997615810 );
#218 = DRAUGHTING_PRE_DEFINED_CURVE_FONT( 'continuous' );
#219 = COLOUR_RGB( '', 0.689999997615810, 0.689999997615810, 0.689999997615810 );
#220 = AXIS2_PLACEMENT_3D( '', #306, #307, #308 );
#221 = DRAUGHTING_PRE_DEFINED_CURVE_FONT( 'continuous' );
#222 = COLOUR_RGB( '', 0.689999997615810, 0.689999997615810, 0.689999997615810 );
#223 = CARTESIAN_POINT( '', ( 0.000000000000000, -1.95937016611580E-015, -16.0000000000000 ) );
#224 = VECTOR( '', #309, 1.00000000000000 );
#225 = DRAUGHTING_PRE_DEFINED_CURVE_FONT( 'continuous' );
#226 = COLOUR_RGB( '', 0.689999997615810, 0.689999997615810, 0.689999997615810 );
#227 = CARTESIAN_POINT( '', ( 0.000000000000000, 1.59198825996909E-015, 13.0000000000000 ) );
#228 = VECTOR( '', #310, 1.00000000000000 );
#229 = DRAUGHTING_PRE_DEFINED_CURVE_FONT( 'continuous' );
#230 = COLOUR_RGB( '', 0.689999997615810, 0.689999997615810, 0.689999997615810 );
#231 = AXIS2_PLACEMENT_3D( '', #311, #312, #313 );
#232 = DRAUGHTING_PRE_DEFINED_CURVE_FONT( 'continuous' );
#233 = COLOUR_RGB( '', 0.689999997615810, 0.689999997615810, 0.689999997615810 );
#234 = CARTESIAN_POINT( '', ( 0.000000000000000, 1.95937016611580E-015, 16.0000000000000 ) );
#235 = VECTOR( '', #314, 1.00000000000000 );
#236 = DRAUGHTING_PRE_DEFINED_CURVE_FONT( 'continuous' );
#237 = COLOUR_RGB( '', 0.689999997615810, 0.689999997615810, 0.689999997615810 );
#238 = AXIS2_PLACEMENT_3D( '', #315, #316, #317 );
#239 = PRE_DEFINED_MARKER( '' );
#240 = COLOUR_RGB( '', 0.689999997615810, 0.689999997615810, 0.689999997615810 );
#241 = PRE_DEFINED_MARKER( '' );
#242 = COLOUR_RGB( '', 0.689999997615810, 0.689999997615810, 0.689999997615810 );
#243 = DRAUGHTING_PRE_DEFINED_CURVE_FONT( 'continuous' );
#244 = COLOUR_RGB( '', 0.689999997615810, 0.689999997615810, 0.689999997615810 );
#245 = AXIS2_PLACEMENT_3D( '', #318, #319, #320 );
#246 = PRE_DEFINED_MARKER( '' );
#247 = COLOUR_RGB( '', 0.689999997615810, 0.689999997615810, 0.689999997615810 );
#248 = PRE_DEFINED_MARKER( '' );
#249 = COLOUR_RGB( '', 0.689999997615810, 0.689999997615810, 0.689999997615810 );
#250 = PRE_DEFINED_MARKER( '' );
#251 = COLOUR_RGB( '', 0.689999997615810, 0.689999997615810, 0.689999997615810 );
#252 = DRAUGHTING_PRE_DEFINED_CURVE_FONT( 'continuous' );
#253 = COLOUR_RGB( '', 0.689999997615810, 0.689999997615810, 0.689999997615810 );
#254 = AXIS2_PLACEMENT_3D( '', #321, #322, #323 );
#255 = DRAUGHTING_PRE_DEFINED_CURVE_FONT( 'continuous' );
#256 = COLOUR_RGB( '', 0.689999997615810, 0.689999997615810, 0.689999997615810 );
#257 = AXIS2_PLACEMENT_3D( '', #324, #325, #326 );
#258 = SURFACE_SIDE_STYLE( '', ( #327 ) );
#259 = EDGE_LOOP( '', ( #328, #329, #330, #331 ) );
#260 = AXIS2_PLACEMENT_3D( '', #332, #333, #334 );
#261 = SURFACE_SIDE_STYLE( '', ( #335 ) );
#262 = EDGE_LOOP( '', ( #336, #337 ) );
#263 = EDGE_LOOP( '', ( #338, #339 ) );
#264 = AXIS2_PLACEMENT_3D( '', #340, #341, #342 );
#266 = SURFACE_STYLE_FILL_AREA( #343 );
#267 = CARTESIAN_POINT( '', ( 0.000000000000000, 0.000000000000000, 0.000000000000000 ) );
#268 = DIRECTION( '', ( 1.00000000000000, -0.000000000000000, 0.000000000000000 ) );
#269 = DIRECTION( '', ( 0.000000000000000, 0.000000000000000, -1.00000000000000 ) );
#270 = DIRECTION( '', ( 1.00000000000000, 0.000000000000000, 0.000000000000000 ) );
#271 = CARTESIAN_POINT( '', ( 5000.00000000000, 0.000000000000000, 0.000000000000000 ) );
#272 = DIRECTION( '', ( -1.00000000000000, 0.000000000000000, 0.000000000000000 ) );
#273 = DIRECTION( '', ( 0.000000000000000, 0.000000000000000, -1.00000000000000 ) );
#274 = SURFACE_STYLE_FILL_AREA( #344 );
#275 = ORIENTED_EDGE( '', *, *, #75, .F. );
#276 = ORIENTED_EDGE( '', *, *, #89, .T. );
#277 = ORIENTED_EDGE( '', *, *, #81, .F. );
#278 = ORIENTED_EDGE( '', *, *, #59, .T. );
#279 = CARTESIAN_POINT( '', ( 0.000000000000000, 0.000000000000000, 0.000000000000000 ) );
#280 = DIRECTION( '', ( -1.00000000000000, -0.000000000000000, -0.000000000000000 ) );
#281 = DIRECTION( '', ( 0.000000000000000, 0.000000000000000, -1.00000000000000 ) );
#282 = SURFACE_STYLE_FILL_AREA( #345 );
#283 = ORIENTED_EDGE( '', *, *, #89, .F. );
#284 = ORIENTED_EDGE( '', *, *, #99, .F. );
#285 = ORIENTED_EDGE( '', *, *, #97, .T. );
#286 = ORIENTED_EDGE( '', *, *, #55, .T. );
#287 = CARTESIAN_POINT( '', ( 0.000000000000000, 0.000000000000000, 0.000000000000000 ) );
#288 = DIRECTION( '', ( 1.00000000000000, 0.000000000000000, 0.000000000000000 ) );
#289 = DIRECTION( '', ( 0.000000000000000, 0.000000000000000, -1.00000000000000 ) );
#290 = SURFACE_STYLE_FILL_AREA( #346 );
#291 = ORIENTED_EDGE( '', *, *, #57, .F. );
#292 = ORIENTED_EDGE( '', *, *, #55, .F. );
#293 = ORIENTED_EDGE( '', *, *, #77, .F. );
#294 = ORIENTED_EDGE( '', *, *, #83, .T. );
#295 = CARTESIAN_POINT( '', ( 0.000000000000000, 0.000000000000000, 0.000000000000000 ) );
#296 = DIRECTION( '', ( -1.00000000000000, -0.000000000000000, -0.000000000000000 ) );
#297 = DIRECTION( '', ( 0.000000000000000, 0.000000000000000, -1.00000000000000 ) );
#298 = SURFACE_STYLE_FILL_AREA( #347 );
#299 = ORIENTED_EDGE( '', *, *, #57, .T. );
#300 = ORIENTED_EDGE( '', *, *, #73, .T. );
#301 = ORIENTED_EDGE( '', *, *, #77, .T. );
#302 = ORIENTED_EDGE( '', *, *, #97, .F. );
#303 = CARTESIAN_POINT( '', ( 0.000000000000000, 0.000000000000000, 0.000000000000000 ) );
#304 = DIRECTION( '', ( -1.00000000000000, -0.000000000000000, -0.000000000000000 ) );
#305 = DIRECTION( '', ( 0.000000000000000, 0.000000000000000, -1.00000000000000 ) );
#306 = CARTESIAN_POINT( '', ( 5000.00000000000, 0.000000000000000, 0.000000000000000 ) );
#307 = DIRECTION( '', ( 1.00000000000000, 0.000000000000000, 0.000000000000000 ) );
#308 = DIRECTION( '', ( 0.000000000000000, 0.000000000000000, -1.00000000000000 ) );
#309 = DIRECTION( '', ( 1.00000000000000, 0.000000000000000, 0.000000000000000 ) );
#310 = DIRECTION( '', ( -1.00000000000000, 0.000000000000000, 0.000000000000000 ) );
#311 = CARTESIAN_POINT( '', ( 5000.00000000000, 0.000000000000000, 0.000000000000000 ) );
#312 = DIRECTION( '', ( -1.00000000000000, 0.000000000000000, 0.000000000000000 ) );
#313 = DIRECTION( '', ( 0.000000000000000, 0.000000000000000, -1.00000000000000 ) );
#314 = DIRECTION( '', ( -1.00000000000000, -0.000000000000000, -0.000000000000000 ) );
#315 = CARTESIAN_POINT( '', ( 5000.00000000000, 0.000000000000000, 0.000000000000000 ) );
#316 = DIRECTION( '', ( 1.00000000000000, 0.000000000000000, 0.000000000000000 ) );
#317 = DIRECTION( '', ( 0.000000000000000, 0.000000000000000, -1.00000000000000 ) );
#318 = CARTESIAN_POINT( '', ( 0.000000000000000, 0.000000000000000, 0.000000000000000 ) );
#319 = DIRECTION( '', ( 1.00000000000000, -0.000000000000000, 0.000000000000000 ) );
#320 = DIRECTION( '', ( 0.000000000000000, 0.000000000000000, -1.00000000000000 ) );
#321 = CARTESIAN_POINT( '', ( 0.000000000000000, 0.000000000000000, 0.000000000000000 ) );
#322 = DIRECTION( '', ( 1.00000000000000, -0.000000000000000, 0.000000000000000 ) );
#323 = DIRECTION( '', ( 0.000000000000000, 0.000000000000000, -1.00000000000000 ) );
#324 = CARTESIAN_POINT( '', ( 0.000000000000000, 0.000000000000000, 0.000000000000000 ) );
#325 = DIRECTION( '', ( 1.00000000000000, -0.000000000000000, 0.000000000000000 ) );
#326 = DIRECTION( '', ( 0.000000000000000, 0.000000000000000, -1.00000000000000 ) );
#327 = SURFACE_STYLE_FILL_AREA( #348 );
#328 = ORIENTED_EDGE( '', *, *, #75, .T. );
#329 = ORIENTED_EDGE( '', *, *, #79, .T. );
#330 = ORIENTED_EDGE( '', *, *, #81, .T. );
#331 = ORIENTED_EDGE( '', *, *, #99, .T. );
#332 = CARTESIAN_POINT( '', ( 0.000000000000000, 0.000000000000000, 0.000000000000000 ) );
#333 = DIRECTION( '', ( -1.00000000000000, -0.000000000000000, -0.000000000000000 ) );
#334 = DIRECTION( '', ( 0.000000000000000, 0.000000000000000, -1.00000000000000 ) );
#335 = SURFACE_STYLE_FILL_AREA( #349 );
#336 = ORIENTED_EDGE( '', *, *, #79, .F. );
#337 = ORIENTED_EDGE( '', *, *, #59, .F. );
#338 = ORIENTED_EDGE( '', *, *, #73, .F. );
#339 = ORIENTED_EDGE( '', *, *, #83, .F. );
#340 = CARTESIAN_POINT( '', ( 5000.00000000000, 0.000000000000000, 0.000000000000000 ) );
#341 = DIRECTION( '', ( 1.00000000000000, 0.000000000000000, 0.000000000000000 ) );
#342 = DIRECTION( '', ( 0.000000000000000, 0.000000000000000, -1.00000000000000 ) );
#343 = FILL_AREA_STYLE( '', ( #350 ) );
#344 = FILL_AREA_STYLE( '', ( #351 ) );
#345 = FILL_AREA_STYLE( '', ( #352 ) );
#346 = FILL_AREA_STYLE( '', ( #353 ) );
#347 = FILL_AREA_STYLE( '', ( #354 ) );
#348 = FILL_AREA_STYLE( '', ( #355 ) );
#349 = FILL_AREA_STYLE( '', ( #356 ) );
#350 = FILL_AREA_STYLE_COLOUR( '', #357 );
#351 = FILL_AREA_STYLE_COLOUR( '', #358 );
#352 = FILL_AREA_STYLE_COLOUR( '', #359 );
#353 = FILL_AREA_STYLE_COLOUR( '', #360 );
#354 = FILL_AREA_STYLE_COLOUR( '', #361 );
#355 = FILL_AREA_STYLE_COLOUR( '', #362 );
#356 = FILL_AREA_STYLE_COLOUR( '', #363 );
#357 = COLOUR_RGB( '', 0.689999997615810, 0.689999997615810, 0.689999997615810 );
#358 = COLOUR_RGB( '', 0.689999997615810, 0.689999997615810, 0.689999997615810 );
#359 = COLOUR_RGB( '', 0.689999997615810, 0.689999997615810, 0.689999997615810 );
#360 = COLOUR_RGB( '', 0.689999997615810, 0.689999997615810, 0.689999997615810 );
#361 = COLOUR_RGB( '', 0.689999997615810, 0.689999997615810, 0.689999997615810 );
#362 = COLOUR_RGB( '', 0.689999997615810, 0.689999997615810, 0.689999997615810 );
#363 = COLOUR_RGB( '', 0.689999997615810, 0.689999997615810, 0.689999997615810 );
ENDSEC;
END-ISO-10303-21;
