ISO-10303-21;
HEADER;
/* Generated by software containing ST-Developer
 * from STEP Tools, Inc. (www.steptools.com) 
 */

FILE_DESCRIPTION(
/* description */ (''),
/* implementation_level */ '2;1');

FILE_NAME(
/* name */ 'C:\\Users\\Gabriele\\Desktop\\catalogo\\BE30\\BE300200.stp',

/* time_stamp */ '2016-10-17T14:43:21+02:00',
/* author */ ('Gabriele'),
/* organization */ (''),
/* preprocessor_version */ 'ST-DEVELOPER v16.5',
/* originating_system */ 'Autodesk Inventor 2017',
/* authorisation */ '');

FILE_SCHEMA (('AUTOMOTIVE_DESIGN { 1 0 10303 214 3 1 1 }'));
ENDSEC;

DATA;
#10=MECHANICAL_DESIGN_GEOMETRIC_PRESENTATION_REPRESENTATION('',(#13),#507);
#11=SHAPE_REPRESENTATION_RELATIONSHIP('SRR','None',#516,#12);
#12=ADVANCED_BREP_SHAPE_REPRESENTATION('',(#14),#506);
#13=STYLED_ITEM('',(#525),#14);
#14=MANIFOLD_SOLID_BREP('Solido1',#213);
#15=B_SPLINE_CURVE_WITH_KNOTS('',3,(#330,#331,#332,#333,#334,#335,#336,
#337,#338,#339,#340,#341,#342,#343,#344,#345,#346,#347,#348,#349,#350,#351,
#352,#353,#354,#355,#356,#357,#358,#359,#360,#361,#362,#363,#364,#365,#366,
#367,#368,#369,#370,#371,#372,#373,#374,#375,#376,#377,#378,#379,#380,#381,
#382,#383,#384,#385,#386,#387,#388,#389,#390,#391,#392,#393,#394,#395),
 .UNSPECIFIED.,.T.,.F.,(4,2,2,2,2,2,2,2,2,2,2,2,2,2,2,2,2,2,2,2,2,2,2,2,
2,2,2,2,2,2,2,2,4),(0.,0.240639954195839,0.481279908391677,0.721941802993977,
0.962603697596278,1.20330062593618,1.44399755427608,1.68474262695642,1.92548769963676,
2.16625628504924,2.40702487046171,2.64778141217697,2.88853795389223,3.12923361971415,
3.36992928553608,3.61054317971749,3.85115707389889,4.0917709680803,4.33238486226171,
4.57308052808363,4.81377619390556,5.05453273562082,5.29528927733607,5.53605786274855,
5.77682644816103,6.01757152084137,6.25831659352171,6.49901352186161,6.73971045020151,
6.98037234480381,7.22103423940611,7.46167419360195,7.70231414779779),
 .UNSPECIFIED.);
#16=B_SPLINE_CURVE_WITH_KNOTS('',3,(#406,#407,#408,#409,#410,#411,#412,
#413,#414,#415,#416,#417,#418,#419,#420,#421,#422,#423,#424,#425,#426,#427,
#428,#429,#430,#431,#432,#433,#434,#435,#436,#437,#438,#439,#440,#441,#442,
#443,#444,#445,#446,#447,#448,#449,#450,#451,#452,#453,#454,#455,#456,#457,
#458,#459,#460,#461,#462,#463,#464,#465,#466,#467,#468,#469,#470,#471),
 .UNSPECIFIED.,.T.,.F.,(4,2,2,2,2,2,2,2,2,2,2,2,2,2,2,2,2,2,2,2,2,2,2,2,
2,2,2,2,2,2,2,2,4),(0.,0.240639954195839,0.481279908391677,0.721941802993978,
0.962603697596279,1.20330062593618,1.44399755427608,1.68474262695642,1.92548769963676,
2.16625628504924,2.40702487046171,2.64778141217697,2.88853795389223,3.12923361971415,
3.36992928553608,3.61054317971749,3.85115707389889,4.0917709680803,4.33238486226171,
4.57308052808363,4.81377619390556,5.05453273562082,5.29528927733607,5.53605786274855,
5.77682644816103,6.01757152084137,6.25831659352171,6.49901352186161,6.73971045020151,
6.98037234480381,7.22103423940611,7.46167419360195,7.70231414779779),
 .UNSPECIFIED.);
#17=PLANE('',#220);
#18=PLANE('',#226);
#19=PLANE('',#230);
#20=PLANE('',#237);
#21=PLANE('',#246);
#22=PLANE('',#247);
#23=CYLINDRICAL_SURFACE('',#218,14.);
#24=CYLINDRICAL_SURFACE('',#224,14.);
#25=CYLINDRICAL_SURFACE('',#232,10.);
#26=CYLINDRICAL_SURFACE('',#239,10.);
#27=FACE_BOUND('',#64,.T.);
#28=FACE_BOUND('',#66,.T.);
#29=FACE_BOUND('',#68,.T.);
#30=FACE_BOUND('',#70,.T.);
#31=FACE_BOUND('',#72,.T.);
#32=FACE_BOUND('',#74,.T.);
#33=FACE_BOUND('',#76,.T.);
#34=FACE_BOUND('',#78,.T.);
#35=FACE_BOUND('',#80,.T.);
#36=FACE_BOUND('',#82,.T.);
#37=FACE_BOUND('',#84,.T.);
#38=FACE_BOUND('',#86,.T.);
#39=FACE_BOUND('',#88,.T.);
#40=FACE_BOUND('',#90,.T.);
#41=FACE_BOUND('',#92,.T.);
#42=FACE_BOUND('',#94,.T.);
#43=FACE_BOUND('',#96,.T.);
#44=FACE_BOUND('',#98,.T.);
#45=FACE_OUTER_BOUND('',#63,.T.);
#46=FACE_OUTER_BOUND('',#65,.T.);
#47=FACE_OUTER_BOUND('',#67,.T.);
#48=FACE_OUTER_BOUND('',#69,.T.);
#49=FACE_OUTER_BOUND('',#71,.T.);
#50=FACE_OUTER_BOUND('',#73,.T.);
#51=FACE_OUTER_BOUND('',#75,.T.);
#52=FACE_OUTER_BOUND('',#77,.T.);
#53=FACE_OUTER_BOUND('',#79,.T.);
#54=FACE_OUTER_BOUND('',#81,.T.);
#55=FACE_OUTER_BOUND('',#83,.T.);
#56=FACE_OUTER_BOUND('',#85,.T.);
#57=FACE_OUTER_BOUND('',#87,.T.);
#58=FACE_OUTER_BOUND('',#89,.T.);
#59=FACE_OUTER_BOUND('',#91,.T.);
#60=FACE_OUTER_BOUND('',#93,.T.);
#61=FACE_OUTER_BOUND('',#95,.T.);
#62=FACE_OUTER_BOUND('',#97,.T.);
#63=EDGE_LOOP('',(#151));
#64=EDGE_LOOP('',(#152));
#65=EDGE_LOOP('',(#153));
#66=EDGE_LOOP('',(#154));
#67=EDGE_LOOP('',(#155));
#68=EDGE_LOOP('',(#156));
#69=EDGE_LOOP('',(#157));
#70=EDGE_LOOP('',(#158));
#71=EDGE_LOOP('',(#159));
#72=EDGE_LOOP('',(#160));
#73=EDGE_LOOP('',(#161));
#74=EDGE_LOOP('',(#162));
#75=EDGE_LOOP('',(#163));
#76=EDGE_LOOP('',(#164));
#77=EDGE_LOOP('',(#165));
#78=EDGE_LOOP('',(#166));
#79=EDGE_LOOP('',(#167));
#80=EDGE_LOOP('',(#168));
#81=EDGE_LOOP('',(#169));
#82=EDGE_LOOP('',(#170));
#83=EDGE_LOOP('',(#171));
#84=EDGE_LOOP('',(#172));
#85=EDGE_LOOP('',(#173));
#86=EDGE_LOOP('',(#174));
#87=EDGE_LOOP('',(#175));
#88=EDGE_LOOP('',(#176));
#89=EDGE_LOOP('',(#177));
#90=EDGE_LOOP('',(#178));
#91=EDGE_LOOP('',(#179));
#92=EDGE_LOOP('',(#180));
#93=EDGE_LOOP('',(#181));
#94=EDGE_LOOP('',(#182));
#95=EDGE_LOOP('',(#183));
#96=EDGE_LOOP('',(#184));
#97=EDGE_LOOP('',(#185));
#98=EDGE_LOOP('',(#186));
#99=CIRCLE('',#216,14.);
#100=CIRCLE('',#217,13.5);
#101=CIRCLE('',#219,14.);
#102=CIRCLE('',#222,13.5);
#103=CIRCLE('',#223,14.);
#104=CIRCLE('',#225,14.);
#105=CIRCLE('',#228,10.);
#106=CIRCLE('',#229,10.5);
#107=CIRCLE('',#231,13.5);
#108=CIRCLE('',#233,10.);
#109=CIRCLE('',#235,10.);
#110=CIRCLE('',#236,10.5);
#111=CIRCLE('',#238,13.5);
#112=CIRCLE('',#240,10.);
#113=CIRCLE('',#244,9.);
#114=CIRCLE('',#245,9.);
#115=VERTEX_POINT('',#321);
#116=VERTEX_POINT('',#323);
#117=VERTEX_POINT('',#326);
#118=VERTEX_POINT('',#329);
#119=VERTEX_POINT('',#397);
#120=VERTEX_POINT('',#399);
#121=VERTEX_POINT('',#402);
#122=VERTEX_POINT('',#405);
#123=VERTEX_POINT('',#473);
#124=VERTEX_POINT('',#475);
#125=VERTEX_POINT('',#478);
#126=VERTEX_POINT('',#481);
#127=VERTEX_POINT('',#484);
#128=VERTEX_POINT('',#486);
#129=VERTEX_POINT('',#489);
#130=VERTEX_POINT('',#492);
#131=VERTEX_POINT('',#497);
#132=VERTEX_POINT('',#499);
#133=EDGE_CURVE('',#115,#115,#99,.T.);
#134=EDGE_CURVE('',#116,#116,#100,.T.);
#135=EDGE_CURVE('',#117,#117,#101,.T.);
#136=EDGE_CURVE('',#118,#118,#15,.T.);
#137=EDGE_CURVE('',#119,#119,#102,.T.);
#138=EDGE_CURVE('',#120,#120,#103,.T.);
#139=EDGE_CURVE('',#121,#121,#104,.T.);
#140=EDGE_CURVE('',#122,#122,#16,.T.);
#141=EDGE_CURVE('',#123,#123,#105,.T.);
#142=EDGE_CURVE('',#124,#124,#106,.T.);
#143=EDGE_CURVE('',#125,#125,#107,.T.);
#144=EDGE_CURVE('',#126,#126,#108,.T.);
#145=EDGE_CURVE('',#127,#127,#109,.T.);
#146=EDGE_CURVE('',#128,#128,#110,.T.);
#147=EDGE_CURVE('',#129,#129,#111,.T.);
#148=EDGE_CURVE('',#130,#130,#112,.T.);
#149=EDGE_CURVE('',#131,#131,#113,.T.);
#150=EDGE_CURVE('',#132,#132,#114,.T.);
#151=ORIENTED_EDGE('',*,*,#133,.T.);
#152=ORIENTED_EDGE('',*,*,#134,.T.);
#153=ORIENTED_EDGE('',*,*,#135,.F.);
#154=ORIENTED_EDGE('',*,*,#133,.F.);
#155=ORIENTED_EDGE('',*,*,#134,.F.);
#156=ORIENTED_EDGE('',*,*,#136,.F.);
#157=ORIENTED_EDGE('',*,*,#137,.T.);
#158=ORIENTED_EDGE('',*,*,#138,.T.);
#159=ORIENTED_EDGE('',*,*,#139,.F.);
#160=ORIENTED_EDGE('',*,*,#138,.F.);
#161=ORIENTED_EDGE('',*,*,#137,.F.);
#162=ORIENTED_EDGE('',*,*,#140,.F.);
#163=ORIENTED_EDGE('',*,*,#141,.T.);
#164=ORIENTED_EDGE('',*,*,#142,.T.);
#165=ORIENTED_EDGE('',*,*,#143,.F.);
#166=ORIENTED_EDGE('',*,*,#142,.F.);
#167=ORIENTED_EDGE('',*,*,#144,.F.);
#168=ORIENTED_EDGE('',*,*,#141,.F.);
#169=ORIENTED_EDGE('',*,*,#145,.T.);
#170=ORIENTED_EDGE('',*,*,#146,.T.);
#171=ORIENTED_EDGE('',*,*,#147,.F.);
#172=ORIENTED_EDGE('',*,*,#146,.F.);
#173=ORIENTED_EDGE('',*,*,#148,.T.);
#174=ORIENTED_EDGE('',*,*,#145,.F.);
#175=ORIENTED_EDGE('',*,*,#147,.T.);
#176=ORIENTED_EDGE('',*,*,#135,.T.);
#177=ORIENTED_EDGE('',*,*,#139,.T.);
#178=ORIENTED_EDGE('',*,*,#143,.T.);
#179=ORIENTED_EDGE('',*,*,#149,.F.);
#180=ORIENTED_EDGE('',*,*,#150,.F.);
#181=ORIENTED_EDGE('',*,*,#144,.T.);
#182=ORIENTED_EDGE('',*,*,#150,.T.);
#183=ORIENTED_EDGE('',*,*,#148,.F.);
#184=ORIENTED_EDGE('',*,*,#149,.T.);
#185=ORIENTED_EDGE('',*,*,#140,.T.);
#186=ORIENTED_EDGE('',*,*,#136,.T.);
#187=TOROIDAL_SURFACE('',#215,13.5,0.5);
#188=TOROIDAL_SURFACE('',#221,13.5,0.5);
#189=TOROIDAL_SURFACE('',#227,10.5,0.5);
#190=TOROIDAL_SURFACE('',#234,10.5,0.5);
#191=TOROIDAL_SURFACE('',#241,13.5,0.5);
#192=TOROIDAL_SURFACE('',#242,13.5,0.5);
#193=TOROIDAL_SURFACE('',#243,40.,9.);
#194=TOROIDAL_SURFACE('',#248,40.,13.);
#195=ADVANCED_FACE('',(#45,#27),#187,.T.);
#196=ADVANCED_FACE('',(#46,#28),#23,.T.);
#197=ADVANCED_FACE('',(#47,#29),#17,.T.);
#198=ADVANCED_FACE('',(#48,#30),#188,.T.);
#199=ADVANCED_FACE('',(#49,#31),#24,.T.);
#200=ADVANCED_FACE('',(#50,#32),#18,.F.);
#201=ADVANCED_FACE('',(#51,#33),#189,.T.);
#202=ADVANCED_FACE('',(#52,#34),#19,.T.);
#203=ADVANCED_FACE('',(#53,#35),#25,.F.);
#204=ADVANCED_FACE('',(#54,#36),#190,.T.);
#205=ADVANCED_FACE('',(#55,#37),#20,.F.);
#206=ADVANCED_FACE('',(#56,#38),#26,.F.);
#207=ADVANCED_FACE('',(#57,#39),#191,.T.);
#208=ADVANCED_FACE('',(#58,#40),#192,.T.);
#209=ADVANCED_FACE('',(#59,#41),#193,.F.);
#210=ADVANCED_FACE('',(#60,#42),#21,.T.);
#211=ADVANCED_FACE('',(#61,#43),#22,.F.);
#212=ADVANCED_FACE('',(#62,#44),#194,.T.);
#213=CLOSED_SHELL('',(#195,#196,#197,#198,#199,#200,#201,#202,#203,#204,
#205,#206,#207,#208,#209,#210,#211,#212));
#214=AXIS2_PLACEMENT_3D('placement',#319,#249,#250);
#215=AXIS2_PLACEMENT_3D('',#320,#251,#252);
#216=AXIS2_PLACEMENT_3D('',#322,#253,#254);
#217=AXIS2_PLACEMENT_3D('',#324,#255,#256);
#218=AXIS2_PLACEMENT_3D('',#325,#257,#258);
#219=AXIS2_PLACEMENT_3D('',#327,#259,#260);
#220=AXIS2_PLACEMENT_3D('',#328,#261,#262);
#221=AXIS2_PLACEMENT_3D('',#396,#263,#264);
#222=AXIS2_PLACEMENT_3D('',#398,#265,#266);
#223=AXIS2_PLACEMENT_3D('',#400,#267,#268);
#224=AXIS2_PLACEMENT_3D('',#401,#269,#270);
#225=AXIS2_PLACEMENT_3D('',#403,#271,#272);
#226=AXIS2_PLACEMENT_3D('',#404,#273,#274);
#227=AXIS2_PLACEMENT_3D('',#472,#275,#276);
#228=AXIS2_PLACEMENT_3D('',#474,#277,#278);
#229=AXIS2_PLACEMENT_3D('',#476,#279,#280);
#230=AXIS2_PLACEMENT_3D('',#477,#281,#282);
#231=AXIS2_PLACEMENT_3D('',#479,#283,#284);
#232=AXIS2_PLACEMENT_3D('',#480,#285,#286);
#233=AXIS2_PLACEMENT_3D('',#482,#287,#288);
#234=AXIS2_PLACEMENT_3D('',#483,#289,#290);
#235=AXIS2_PLACEMENT_3D('',#485,#291,#292);
#236=AXIS2_PLACEMENT_3D('',#487,#293,#294);
#237=AXIS2_PLACEMENT_3D('',#488,#295,#296);
#238=AXIS2_PLACEMENT_3D('',#490,#297,#298);
#239=AXIS2_PLACEMENT_3D('',#491,#299,#300);
#240=AXIS2_PLACEMENT_3D('',#493,#301,#302);
#241=AXIS2_PLACEMENT_3D('',#494,#303,#304);
#242=AXIS2_PLACEMENT_3D('',#495,#305,#306);
#243=AXIS2_PLACEMENT_3D('',#496,#307,#308);
#244=AXIS2_PLACEMENT_3D('',#498,#309,#310);
#245=AXIS2_PLACEMENT_3D('',#500,#311,#312);
#246=AXIS2_PLACEMENT_3D('',#501,#313,#314);
#247=AXIS2_PLACEMENT_3D('',#502,#315,#316);
#248=AXIS2_PLACEMENT_3D('',#503,#317,#318);
#249=DIRECTION('axis',(0.,0.,1.));
#250=DIRECTION('refdir',(1.,0.,0.));
#251=DIRECTION('center_axis',(0.,0.,1.));
#252=DIRECTION('ref_axis',(1.,0.,0.));
#253=DIRECTION('center_axis',(0.,0.,1.));
#254=DIRECTION('ref_axis',(1.,0.,0.));
#255=DIRECTION('center_axis',(0.,0.,-1.));
#256=DIRECTION('ref_axis',(1.,0.,0.));
#257=DIRECTION('center_axis',(0.,0.,1.));
#258=DIRECTION('ref_axis',(1.,0.,0.));
#259=DIRECTION('center_axis',(0.,0.,-1.));
#260=DIRECTION('ref_axis',(1.,0.,0.));
#261=DIRECTION('center_axis',(0.,0.,1.));
#262=DIRECTION('ref_axis',(1.,0.,0.));
#263=DIRECTION('center_axis',(-1.,0.,-4.44089209850063E-16));
#264=DIRECTION('ref_axis',(-5.07530525542929E-16,0.,1.));
#265=DIRECTION('center_axis',(-1.,0.,-4.44089209850063E-16));
#266=DIRECTION('ref_axis',(-4.44089209850063E-16,0.,1.));
#267=DIRECTION('center_axis',(1.,0.,4.44089209850063E-16));
#268=DIRECTION('ref_axis',(-4.46071750965465E-16,0.,1.));
#269=DIRECTION('center_axis',(-1.,0.,-4.44089209850063E-16));
#270=DIRECTION('ref_axis',(-4.44089209850063E-16,0.,1.));
#271=DIRECTION('center_axis',(-1.,0.,-6.04901474817726E-16));
#272=DIRECTION('ref_axis',(-6.0467504019763E-16,0.,1.));
#273=DIRECTION('center_axis',(-1.,0.,-4.44089209850063E-16));
#274=DIRECTION('ref_axis',(-7.105427357601E-16,0.,1.));
#275=DIRECTION('center_axis',(1.,0.,6.04901474817726E-16));
#276=DIRECTION('ref_axis',(6.45947941600091E-16,0.,-1.));
#277=DIRECTION('center_axis',(1.,0.,6.04901474817726E-16));
#278=DIRECTION('ref_axis',(-6.03683769639929E-16,0.,1.));
#279=DIRECTION('center_axis',(-1.,0.,-6.04901474817726E-16));
#280=DIRECTION('ref_axis',(-6.04901474817726E-16,0.,1.));
#281=DIRECTION('center_axis',(-1.,0.,-6.04901474817726E-16));
#282=DIRECTION('ref_axis',(-7.105427357601E-16,0.,1.));
#283=DIRECTION('center_axis',(1.,0.,6.04901474817726E-16));
#284=DIRECTION('ref_axis',(-6.04901474817726E-16,0.,1.));
#285=DIRECTION('center_axis',(-1.,0.,-4.44089209850063E-16));
#286=DIRECTION('ref_axis',(-4.44089209850063E-16,0.,1.));
#287=DIRECTION('center_axis',(-1.,0.,-4.44089209850063E-16));
#288=DIRECTION('ref_axis',(-4.44089209850063E-16,0.,1.));
#289=DIRECTION('center_axis',(0.,0.,1.));
#290=DIRECTION('ref_axis',(1.,0.,0.));
#291=DIRECTION('center_axis',(0.,0.,1.));
#292=DIRECTION('ref_axis',(1.,0.,0.));
#293=DIRECTION('center_axis',(0.,0.,-1.));
#294=DIRECTION('ref_axis',(1.,0.,0.));
#295=DIRECTION('center_axis',(0.,0.,1.));
#296=DIRECTION('ref_axis',(1.,0.,0.));
#297=DIRECTION('center_axis',(0.,0.,1.));
#298=DIRECTION('ref_axis',(1.,0.,0.));
#299=DIRECTION('center_axis',(0.,0.,1.));
#300=DIRECTION('ref_axis',(1.,0.,0.));
#301=DIRECTION('center_axis',(0.,0.,1.));
#302=DIRECTION('ref_axis',(1.,0.,0.));
#303=DIRECTION('center_axis',(0.,0.,1.));
#304=DIRECTION('ref_axis',(1.,0.,0.));
#305=DIRECTION('center_axis',(-1.,0.,-6.04901474817726E-16));
#306=DIRECTION('ref_axis',(-5.07530525542929E-16,0.,1.));
#307=DIRECTION('center_axis',(0.,1.,0.));
#308=DIRECTION('ref_axis',(0.,0.,1.));
#309=DIRECTION('center_axis',(0.,0.,1.));
#310=DIRECTION('ref_axis',(-1.,0.,0.));
#311=DIRECTION('center_axis',(1.,0.,4.44089209850063E-16));
#312=DIRECTION('ref_axis',(-4.44089209850063E-16,0.,1.));
#313=DIRECTION('center_axis',(-1.,0.,-4.44089209850063E-16));
#314=DIRECTION('ref_axis',(-7.105427357601E-16,0.,1.));
#315=DIRECTION('center_axis',(0.,0.,1.));
#316=DIRECTION('ref_axis',(1.,0.,0.));
#317=DIRECTION('center_axis',(0.,-1.,0.));
#318=DIRECTION('ref_axis',(0.,0.,-1.));
#319=CARTESIAN_POINT('',(0.,0.,0.));
#320=CARTESIAN_POINT('Origin',(0.,0.,16.5));
#321=CARTESIAN_POINT('',(-14.,-1.71450551880629E-15,16.5));
#322=CARTESIAN_POINT('Origin',(0.,0.,16.5));
#323=CARTESIAN_POINT('',(-13.5,1.65327317884893E-15,17.));
#324=CARTESIAN_POINT('Origin',(0.,0.,17.));
#325=CARTESIAN_POINT('Origin',(0.,0.,0.));
#326=CARTESIAN_POINT('',(-14.,1.71450551880629E-15,0.5));
#327=CARTESIAN_POINT('Origin',(0.,0.,0.5));
#328=CARTESIAN_POINT('Origin',(6.71553090674409E-16,0.,17.));
#329=CARTESIAN_POINT('',(12.9905651979671,0.,17.));
#330=CARTESIAN_POINT('Ctrl Pts',(12.9905651979671,0.,17.));
#331=CARTESIAN_POINT('Ctrl Pts',(12.9905651979671,0.802133180652795,17.));
#332=CARTESIAN_POINT('Ctrl Pts',(12.9114158858254,1.67816504328457,17.));
#333=CARTESIAN_POINT('Ctrl Pts',(12.5701139607383,3.39382377199214,17.));
#334=CARTESIAN_POINT('Ctrl Pts',(12.3079615853188,4.23345068531977,17.));
#335=CARTESIAN_POINT('Ctrl Pts',(11.6939562360139,5.71564589831655,17.));
#336=CARTESIAN_POINT('Ctrl Pts',(11.2855227746343,6.49476025249977,17.));
#337=CARTESIAN_POINT('Ctrl Pts',(10.3135076916178,7.94931168738851,17.));
#338=CARTESIAN_POINT('Ctrl Pts',(9.7499266656405,8.62474916614791,17.));
#339=CARTESIAN_POINT('Ctrl Pts',(8.61528835939896,9.7592581087949,17.));
#340=CARTESIAN_POINT('Ctrl Pts',(7.9396816029749,10.322834279095,17.));
#341=CARTESIAN_POINT('Ctrl Pts',(6.48479998206115,11.2948182903086,17.));
#342=CARTESIAN_POINT('Ctrl Pts',(5.70552574023182,11.7032270632299,17.));
#343=CARTESIAN_POINT('Ctrl Pts',(4.22284936553914,12.317291568165,17.));
#344=CARTESIAN_POINT('Ctrl Pts',(3.38283514359554,12.5794920148283,17.));
#345=CARTESIAN_POINT('Ctrl Pts',(1.66640114946017,12.9208456157904,17.));
#346=CARTESIAN_POINT('Ctrl Pts',(0.789981621865544,13.,17.));
#347=CARTESIAN_POINT('Ctrl Pts',(-0.815063905110514,13.,17.));
#348=CARTESIAN_POINT('Ctrl Pts',(-1.69156742333078,12.9208300917076,17.));
#349=CARTESIAN_POINT('Ctrl Pts',(-3.4081739342641,12.5794488322949,17.));
#350=CARTESIAN_POINT('Ctrl Pts',(-4.24827705429839,12.3172381213989,17.));
#351=CARTESIAN_POINT('Ctrl Pts',(-5.73123827828172,11.7031372539155,17.));
#352=CARTESIAN_POINT('Ctrl Pts',(-6.51073129453863,11.2946747695736,17.));
#353=CARTESIAN_POINT('Ctrl Pts',(-7.96605851925131,10.3225680075268,17.));
#354=CARTESIAN_POINT('Ctrl Pts',(-8.64189206648394,9.75892273991437,17.));
#355=CARTESIAN_POINT('Ctrl Pts',(-9.77688166238547,8.62432489784775,17.));
#356=CARTESIAN_POINT('Ctrl Pts',(-10.3406349215002,7.94886825187494,17.));
#357=CARTESIAN_POINT('Ctrl Pts',(-11.3129860651276,6.49424691763477,17.));
#358=CARTESIAN_POINT('Ctrl Pts',(-11.7215811989301,5.71508039063921,17.));
#359=CARTESIAN_POINT('Ctrl Pts',(-12.3357556551688,4.23292741867222,17.));
#360=CARTESIAN_POINT('Ctrl Pts',(-12.5979655362967,3.3934181846422,17.));
#361=CARTESIAN_POINT('Ctrl Pts',(-12.9393511893562,1.67797784001402,17.));
#362=CARTESIAN_POINT('Ctrl Pts',(-13.0185248735359,0.802046313938026,17.));
#363=CARTESIAN_POINT('Ctrl Pts',(-13.0185248735359,-0.802046313938023,17.));
#364=CARTESIAN_POINT('Ctrl Pts',(-12.9393511893562,-1.67797784001401,17.));
#365=CARTESIAN_POINT('Ctrl Pts',(-12.5979655362967,-3.3934181846422,17.));
#366=CARTESIAN_POINT('Ctrl Pts',(-12.3357556551688,-4.23292741867221,17.));
#367=CARTESIAN_POINT('Ctrl Pts',(-11.7215811989301,-5.71508039063921,17.));
#368=CARTESIAN_POINT('Ctrl Pts',(-11.3129860651276,-6.49424691763477,17.));
#369=CARTESIAN_POINT('Ctrl Pts',(-10.3406349215002,-7.94886825187494,17.));
#370=CARTESIAN_POINT('Ctrl Pts',(-9.77688166238547,-8.62432489784775,17.));
#371=CARTESIAN_POINT('Ctrl Pts',(-8.64189206648394,-9.75892273991437,17.));
#372=CARTESIAN_POINT('Ctrl Pts',(-7.96605851925131,-10.3225680075268,17.));
#373=CARTESIAN_POINT('Ctrl Pts',(-6.51073129453863,-11.2946747695736,17.));
#374=CARTESIAN_POINT('Ctrl Pts',(-5.73123827828172,-11.7031372539155,17.));
#375=CARTESIAN_POINT('Ctrl Pts',(-4.24827705429839,-12.3172381213989,17.));
#376=CARTESIAN_POINT('Ctrl Pts',(-3.4081739342641,-12.5794488322949,17.));
#377=CARTESIAN_POINT('Ctrl Pts',(-1.69156742333078,-12.9208300917076,17.));
#378=CARTESIAN_POINT('Ctrl Pts',(-0.815063905110518,-13.,17.));
#379=CARTESIAN_POINT('Ctrl Pts',(0.789981621865539,-13.,17.));
#380=CARTESIAN_POINT('Ctrl Pts',(1.66640114946016,-12.9208456157904,17.));
#381=CARTESIAN_POINT('Ctrl Pts',(3.38283514359553,-12.5794920148283,17.));
#382=CARTESIAN_POINT('Ctrl Pts',(4.22284936553913,-12.317291568165,17.));
#383=CARTESIAN_POINT('Ctrl Pts',(5.70552574023182,-11.7032270632299,17.));
#384=CARTESIAN_POINT('Ctrl Pts',(6.48479998206115,-11.2948182903086,17.));
#385=CARTESIAN_POINT('Ctrl Pts',(7.93968160297489,-10.3228342790951,17.));
#386=CARTESIAN_POINT('Ctrl Pts',(8.61528835939895,-9.75925810879491,17.));
#387=CARTESIAN_POINT('Ctrl Pts',(9.74992666564049,-8.62474916614791,17.));
#388=CARTESIAN_POINT('Ctrl Pts',(10.3135076916178,-7.94931168738851,17.));
#389=CARTESIAN_POINT('Ctrl Pts',(11.2855227746343,-6.49476025249977,17.));
#390=CARTESIAN_POINT('Ctrl Pts',(11.6939562360139,-5.71564589831655,17.));
#391=CARTESIAN_POINT('Ctrl Pts',(12.3079615853188,-4.23345068531977,17.));
#392=CARTESIAN_POINT('Ctrl Pts',(12.5701139607383,-3.39382377199213,17.));
#393=CARTESIAN_POINT('Ctrl Pts',(12.9114158858254,-1.67816504328457,17.));
#394=CARTESIAN_POINT('Ctrl Pts',(12.9905651979671,-0.802133180652795,17.));
#395=CARTESIAN_POINT('Ctrl Pts',(12.9905651979671,0.,17.));
#396=CARTESIAN_POINT('Origin',(-39.5,0.,56.));
#397=CARTESIAN_POINT('',(-39.,-1.65327317884893E-15,42.5));
#398=CARTESIAN_POINT('Origin',(-39.,0.,56.));
#399=CARTESIAN_POINT('',(-39.5,1.71450551880629E-15,42.));
#400=CARTESIAN_POINT('Origin',(-39.5,0.,56.));
#401=CARTESIAN_POINT('Origin',(-56.,0.,56.));
#402=CARTESIAN_POINT('',(-55.5,-1.71450551880629E-15,42.));
#403=CARTESIAN_POINT('Origin',(-55.5,0.,56.));
#404=CARTESIAN_POINT('Origin',(-39.,0.,56.));
#405=CARTESIAN_POINT('',(-39.,8.32667268468867E-16,68.9905651979671));
#406=CARTESIAN_POINT('Ctrl Pts',(-39.,8.32667268468867E-16,68.9905651979671));
#407=CARTESIAN_POINT('Ctrl Pts',(-39.,-0.802133180652794,68.9905651979671));
#408=CARTESIAN_POINT('Ctrl Pts',(-39.,-1.67816504328457,68.9114158858254));
#409=CARTESIAN_POINT('Ctrl Pts',(-39.,-3.39382377199213,68.5701139607383));
#410=CARTESIAN_POINT('Ctrl Pts',(-39.,-4.23345068531977,68.3079615853188));
#411=CARTESIAN_POINT('Ctrl Pts',(-39.,-5.71564589831655,67.6939562360139));
#412=CARTESIAN_POINT('Ctrl Pts',(-39.,-6.49476025249978,67.2855227746343));
#413=CARTESIAN_POINT('Ctrl Pts',(-39.,-7.94931168738851,66.3135076916178));
#414=CARTESIAN_POINT('Ctrl Pts',(-39.,-8.62474916614791,65.7499266656405));
#415=CARTESIAN_POINT('Ctrl Pts',(-39.,-9.75925810879491,64.6152883593989));
#416=CARTESIAN_POINT('Ctrl Pts',(-39.,-10.3228342790951,63.9396816029749));
#417=CARTESIAN_POINT('Ctrl Pts',(-39.,-11.2948182903086,62.4847999820611));
#418=CARTESIAN_POINT('Ctrl Pts',(-39.,-11.7032270632299,61.7055257402318));
#419=CARTESIAN_POINT('Ctrl Pts',(-39.,-12.317291568165,60.2228493655391));
#420=CARTESIAN_POINT('Ctrl Pts',(-39.,-12.5794920148283,59.3828351435955));
#421=CARTESIAN_POINT('Ctrl Pts',(-39.,-12.9208456157904,57.6664011494601));
#422=CARTESIAN_POINT('Ctrl Pts',(-39.,-13.,56.7899816218655));
#423=CARTESIAN_POINT('Ctrl Pts',(-39.,-13.,55.1849360948895));
#424=CARTESIAN_POINT('Ctrl Pts',(-39.,-12.9208300917076,54.3084325766692));
#425=CARTESIAN_POINT('Ctrl Pts',(-39.,-12.5794488322949,52.5918260657359));
#426=CARTESIAN_POINT('Ctrl Pts',(-39.,-12.3172381213989,51.7517229457016));
#427=CARTESIAN_POINT('Ctrl Pts',(-39.,-11.7031372539155,50.2687617217183));
#428=CARTESIAN_POINT('Ctrl Pts',(-39.,-11.2946747695736,49.4892687054614));
#429=CARTESIAN_POINT('Ctrl Pts',(-39.,-10.3225680075268,48.0339414807487));
#430=CARTESIAN_POINT('Ctrl Pts',(-39.,-9.75892273991437,47.3581079335161));
#431=CARTESIAN_POINT('Ctrl Pts',(-39.,-8.62432489784775,46.2231183376145));
#432=CARTESIAN_POINT('Ctrl Pts',(-39.,-7.94886825187494,45.6593650784998));
#433=CARTESIAN_POINT('Ctrl Pts',(-39.,-6.49424691763478,44.6870139348724));
#434=CARTESIAN_POINT('Ctrl Pts',(-39.,-5.71508039063921,44.2784188010699));
#435=CARTESIAN_POINT('Ctrl Pts',(-39.,-4.23292741867221,43.6642443448312));
#436=CARTESIAN_POINT('Ctrl Pts',(-39.,-3.3934181846422,43.4020344637033));
#437=CARTESIAN_POINT('Ctrl Pts',(-39.,-1.67797784001401,43.0606488106438));
#438=CARTESIAN_POINT('Ctrl Pts',(-39.,-0.802046313938023,42.9814751264641));
#439=CARTESIAN_POINT('Ctrl Pts',(-39.,0.802046313938028,42.9814751264641));
#440=CARTESIAN_POINT('Ctrl Pts',(-39.,1.67797784001402,43.0606488106438));
#441=CARTESIAN_POINT('Ctrl Pts',(-39.,3.3934181846422,43.4020344637033));
#442=CARTESIAN_POINT('Ctrl Pts',(-39.,4.23292741867222,43.6642443448312));
#443=CARTESIAN_POINT('Ctrl Pts',(-39.,5.71508039063921,44.2784188010699));
#444=CARTESIAN_POINT('Ctrl Pts',(-39.,6.49424691763477,44.6870139348724));
#445=CARTESIAN_POINT('Ctrl Pts',(-39.,7.94886825187493,45.6593650784998));
#446=CARTESIAN_POINT('Ctrl Pts',(-39.,8.62432489784775,46.2231183376145));
#447=CARTESIAN_POINT('Ctrl Pts',(-39.,9.75892273991437,47.3581079335161));
#448=CARTESIAN_POINT('Ctrl Pts',(-39.,10.3225680075268,48.0339414807487));
#449=CARTESIAN_POINT('Ctrl Pts',(-39.,11.2946747695736,49.4892687054614));
#450=CARTESIAN_POINT('Ctrl Pts',(-39.,11.7031372539155,50.2687617217183));
#451=CARTESIAN_POINT('Ctrl Pts',(-39.,12.3172381213989,51.7517229457016));
#452=CARTESIAN_POINT('Ctrl Pts',(-39.,12.5794488322949,52.5918260657359));
#453=CARTESIAN_POINT('Ctrl Pts',(-39.,12.9208300917076,54.3084325766692));
#454=CARTESIAN_POINT('Ctrl Pts',(-39.,13.,55.1849360948895));
#455=CARTESIAN_POINT('Ctrl Pts',(-39.,13.,56.7899816218655));
#456=CARTESIAN_POINT('Ctrl Pts',(-39.,12.9208456157904,57.6664011494602));
#457=CARTESIAN_POINT('Ctrl Pts',(-39.,12.5794920148283,59.3828351435955));
#458=CARTESIAN_POINT('Ctrl Pts',(-39.,12.317291568165,60.2228493655391));
#459=CARTESIAN_POINT('Ctrl Pts',(-39.,11.7032270632299,61.7055257402318));
#460=CARTESIAN_POINT('Ctrl Pts',(-39.,11.2948182903086,62.4847999820611));
#461=CARTESIAN_POINT('Ctrl Pts',(-39.,10.3228342790951,63.9396816029749));
#462=CARTESIAN_POINT('Ctrl Pts',(-39.,9.7592581087949,64.6152883593989));
#463=CARTESIAN_POINT('Ctrl Pts',(-39.,8.62474916614791,65.7499266656405));
#464=CARTESIAN_POINT('Ctrl Pts',(-39.,7.94931168738851,66.3135076916178));
#465=CARTESIAN_POINT('Ctrl Pts',(-39.,6.49476025249978,67.2855227746343));
#466=CARTESIAN_POINT('Ctrl Pts',(-39.,5.71564589831654,67.6939562360139));
#467=CARTESIAN_POINT('Ctrl Pts',(-39.,4.23345068531976,68.3079615853188));
#468=CARTESIAN_POINT('Ctrl Pts',(-39.,3.39382377199213,68.5701139607383));
#469=CARTESIAN_POINT('Ctrl Pts',(-39.,1.67816504328457,68.9114158858254));
#470=CARTESIAN_POINT('Ctrl Pts',(-39.,0.802133180652792,68.9905651979671));
#471=CARTESIAN_POINT('Ctrl Pts',(-39.,-5.55111512312578E-16,68.9905651979671));
#472=CARTESIAN_POINT('Origin',(-55.5,0.,56.));
#473=CARTESIAN_POINT('',(-55.5,1.22464679914735E-15,46.));
#474=CARTESIAN_POINT('Origin',(-55.5,0.,56.));
#475=CARTESIAN_POINT('',(-56.,-1.28587913910472E-15,45.5));
#476=CARTESIAN_POINT('Origin',(-56.,0.,56.));
#477=CARTESIAN_POINT('Origin',(-56.,0.,56.));
#478=CARTESIAN_POINT('',(-56.,1.65327317884893E-15,42.5));
#479=CARTESIAN_POINT('Origin',(-56.,0.,56.));
#480=CARTESIAN_POINT('Origin',(-56.,0.,56.));
#481=CARTESIAN_POINT('',(-40.,1.22464679914735E-15,46.));
#482=CARTESIAN_POINT('Origin',(-40.,0.,56.));
#483=CARTESIAN_POINT('Origin',(0.,0.,0.5));
#484=CARTESIAN_POINT('',(-10.,-1.22464679914735E-15,0.5));
#485=CARTESIAN_POINT('Origin',(0.,0.,0.5));
#486=CARTESIAN_POINT('',(-10.5,1.28587913910472E-15,0.));
#487=CARTESIAN_POINT('Origin',(0.,0.,0.));
#488=CARTESIAN_POINT('Origin',(1.3267006990763E-16,0.,0.));
#489=CARTESIAN_POINT('',(-13.5,-1.65327317884893E-15,0.));
#490=CARTESIAN_POINT('Origin',(0.,0.,0.));
#491=CARTESIAN_POINT('Origin',(0.,0.,0.));
#492=CARTESIAN_POINT('',(-10.,1.22464679914735E-15,16.));
#493=CARTESIAN_POINT('Origin',(0.,0.,16.));
#494=CARTESIAN_POINT('Origin',(0.,0.,0.5));
#495=CARTESIAN_POINT('Origin',(-55.5,0.,56.));
#496=CARTESIAN_POINT('Origin',(-40.,0.,16.));
#497=CARTESIAN_POINT('',(8.99999999999997,1.10218211923262E-15,16.));
#498=CARTESIAN_POINT('Origin',(-2.66453525910038E-14,0.,16.));
#499=CARTESIAN_POINT('',(-40.,1.10218211923262E-15,65.));
#500=CARTESIAN_POINT('Origin',(-40.,0.,56.));
#501=CARTESIAN_POINT('Origin',(-40.,0.,56.));
#502=CARTESIAN_POINT('Origin',(4.72128241470665E-16,0.,16.));
#503=CARTESIAN_POINT('Origin',(-40.,0.,16.));
#504=UNCERTAINTY_MEASURE_WITH_UNIT(LENGTH_MEASURE(0.01),#508,
'DISTANCE_ACCURACY_VALUE',
'Maximum model space distance between geometric entities at asserted c
onnectivities');
#505=UNCERTAINTY_MEASURE_WITH_UNIT(LENGTH_MEASURE(1.E-6),#508,
'DISTANCE_ACCURACY_VALUE',
'Maximum model space distance between geometric entities at asserted c
onnectivities');
#506=(
GEOMETRIC_REPRESENTATION_CONTEXT(3)
GLOBAL_UNCERTAINTY_ASSIGNED_CONTEXT((#504))
GLOBAL_UNIT_ASSIGNED_CONTEXT((#508,#511,#509))
REPRESENTATION_CONTEXT('','3D')
);
#507=(
GEOMETRIC_REPRESENTATION_CONTEXT(3)
GLOBAL_UNCERTAINTY_ASSIGNED_CONTEXT((#505))
GLOBAL_UNIT_ASSIGNED_CONTEXT((#508,#511,#509))
REPRESENTATION_CONTEXT('','3D')
);
#508=(
LENGTH_UNIT()
NAMED_UNIT(*)
SI_UNIT(.MILLI.,.METRE.)
);
#509=(
NAMED_UNIT(*)
SI_UNIT($,.STERADIAN.)
SOLID_ANGLE_UNIT()
);
#510=DIMENSIONAL_EXPONENTS(0.,0.,0.,0.,0.,0.,0.);
#511=(
CONVERSION_BASED_UNIT('degree',#513)
NAMED_UNIT(#510)
PLANE_ANGLE_UNIT()
);
#512=(
NAMED_UNIT(*)
PLANE_ANGLE_UNIT()
SI_UNIT($,.RADIAN.)
);
#513=PLANE_ANGLE_MEASURE_WITH_UNIT(PLANE_ANGLE_MEASURE(0.01745329252),#512);
#514=SHAPE_DEFINITION_REPRESENTATION(#515,#516);
#515=PRODUCT_DEFINITION_SHAPE('',$,#518);
#516=SHAPE_REPRESENTATION('',(#214),#506);
#517=PRODUCT_DEFINITION_CONTEXT('part definition',#522,'design');
#518=PRODUCT_DEFINITION('BE300200','BE30',#519,#517);
#519=PRODUCT_DEFINITION_FORMATION('',$,#524);
#520=PRODUCT_RELATED_PRODUCT_CATEGORY('BE30','BE30',(#524));
#521=APPLICATION_PROTOCOL_DEFINITION('international standard',
'automotive_design',2009,#522);
#522=APPLICATION_CONTEXT(
'Core Data for Automotive Mechanical Design Process');
#523=PRODUCT_CONTEXT('part definition',#522,'mechanical');
#524=PRODUCT('BE300200','BE30',$,(#523));
#525=PRESENTATION_STYLE_ASSIGNMENT((#526));
#526=SURFACE_STYLE_USAGE(.BOTH.,#527);
#527=SURFACE_SIDE_STYLE('',(#528));
#528=SURFACE_STYLE_FILL_AREA(#529);
#529=FILL_AREA_STYLE('',(#530));
#530=FILL_AREA_STYLE_COLOUR('',#531);
#531=COLOUR_RGB('',0.8,0.8,0.8);
ENDSEC;
END-ISO-10303-21;
