ISO-10303-21;
HEADER;
/* Generated by software containing ST-Developer
 * from STEP Tools, Inc. (www.steptools.com) 
 */

FILE_DESCRIPTION(
/* description */ (''),
/* implementation_level */ '2;1');

FILE_NAME(
/* name */ 
'Q:\\Ric010\\FF7\\FIPlastiCAD\\FIP\\Lavoro\\PVC Fittings\\PVC Fittings
 STEP\\TRIV\\TRIV050040.ipt.stp',
/* time_stamp */ '2013-10-01T14:56:29+02:00',
/* author */ ('bfaro'),
/* organization */ (''),
/* preprocessor_version */ 'ST-DEVELOPER v15.2',
/* originating_system */ 'Autodesk Inventor 2014',
/* authorisation */ '');

FILE_SCHEMA (('AUTOMOTIVE_DESIGN { 1 0 10303 214 3 1 1 }'));
ENDSEC;

DATA;
#10=SHAPE_REPRESENTATION_RELATIONSHIP('SRR','None',#451,#11);
#11=ADVANCED_BREP_SHAPE_REPRESENTATION($,(#181),#442);
#12=STYLED_ITEM($,(#459),#181);
#13=PLANE($,#202);
#14=PLANE($,#203);
#15=PLANE($,#204);
#16=PLANE($,#205);
#17=PLANE($,#206);
#18=PLANE($,#207);
#19=FACE_BOUND($,#53,.T.);
#20=FACE_BOUND($,#55,.T.);
#21=FACE_BOUND($,#56,.T.);
#22=FACE_BOUND($,#58,.T.);
#23=FACE_BOUND($,#59,.T.);
#24=FACE_BOUND($,#61,.T.);
#25=FACE_BOUND($,#63,.T.);
#26=FACE_BOUND($,#65,.T.);
#27=FACE_BOUND($,#67,.T.);
#28=FACE_BOUND($,#69,.T.);
#29=FACE_BOUND($,#70,.T.);
#30=FACE_BOUND($,#71,.T.);
#31=FACE_BOUND($,#73,.T.);
#32=FACE_BOUND($,#75,.T.);
#33=FACE_BOUND($,#76,.T.);
#34=FACE_BOUND($,#77,.T.);
#35=FACE_BOUND($,#78,.T.);
#36=FACE_BOUND($,#79,.T.);
#37=B_SPLINE_CURVE_WITH_KNOTS($,3,(#265,#266,#267,#268,#269,#270,#271,#272,
#273,#274,#275,#276,#277,#278,#279,#280,#281,#282,#283,#284,#285,#286,#287,
#288,#289,#290,#291,#292,#293,#294,#295,#296,#297,#298,#299,#300,#301,#302,
#303,#304,#305,#306,#307,#308,#309,#310,#311,#312,#313,#314,#315,#316,#317,
#318,#319,#320,#321,#322,#323,#324,#325,#326,#327,#328,#329,#330),
 .UNSPECIFIED.,.T.,.F.,(4,2,2,2,2,2,2,2,2,2,2,2,2,2,2,2,2,2,2,2,2,2,2,2,
2,2,2,2,2,2,2,2,4),(0.,0.388335392829174,0.776670785658348,1.16500617848752,
1.5533415713167,1.93036828998151,2.30739500864633,2.68442172731115,3.06144844597597,
3.43847516464079,3.81550188330561,4.19252860197042,4.56955532063524,4.95789071346442,
5.34622610629359,5.73456149912276,6.12289689195194,6.5112322847681,6.89956767758427,
7.28790307040043,7.67623846321659,8.05326518188116,8.43029190054572,8.80731861921028,
9.18434533787484,9.5613720565394,9.93839877520396,10.3154254938685,10.6924522125331,
11.0807876053492,11.4691229981654,11.8574583909816,12.2457937837977),
 .UNSPECIFIED.);
#38=B_SPLINE_CURVE_WITH_KNOTS($,3,(#343,#344,#345,#346,#347,#348,#349,#350,
#351,#352,#353,#354,#355,#356,#357,#358,#359,#360),.UNSPECIFIED.,.F.,.F.,
(4,2,2,2,2,2,2,2,4),(8.33205992053337,8.86386319804702,9.39566647556068,
9.92746975307433,10.459273030588,10.968977243122,11.478681455656,11.98838566819,
12.498089880724),.UNSPECIFIED.);
#39=B_SPLINE_CURVE_WITH_KNOTS($,3,(#362,#363,#364,#365,#366,#367,#368,#369,
#370,#371,#372,#373,#374,#375,#376,#377,#378,#379),.UNSPECIFIED.,.F.,.F.,
(4,2,2,2,2,2,2,2,4),(-8.33205992053337,-7.80025664301378,-7.2684533654942,
-6.73665008797461,-6.20484681045503,-5.69514259790794,-5.18543838536085,
-4.67573417281376,-4.16602996026667),.UNSPECIFIED.);
#40=B_SPLINE_CURVE_WITH_KNOTS($,3,(#381,#382,#383,#384,#385,#386,#387,#388,
#389,#390,#391,#392,#393,#394,#395,#396,#397,#398),.UNSPECIFIED.,.F.,.F.,
(4,2,2,2,2,2,2,2,4),(12.4980898806481,13.0077940931952,13.5174983057423,
14.0272025182893,14.5369067308364,15.068710008356,15.6005132858756,16.1323165633952,
16.6641198409148),.UNSPECIFIED.);
#41=B_SPLINE_CURVE_WITH_KNOTS($,3,(#399,#400,#401,#402,#403,#404,#405,#406,
#407,#408,#409,#410,#411,#412,#413,#414,#415,#416),.UNSPECIFIED.,.F.,.F.,
(4,2,2,2,2,2,2,2,4),(-4.1660299601907,-3.65632574765669,-3.14662153512267,
-2.63691732258866,-2.12721311005465,-1.59540983254099,-1.06360655502734,
-0.531803277513681,-2.66453525910038E-014),.UNSPECIFIED.);
#42=FACE_OUTER_BOUND($,#52,.T.);
#43=FACE_OUTER_BOUND($,#54,.T.);
#44=FACE_OUTER_BOUND($,#57,.T.);
#45=FACE_OUTER_BOUND($,#60,.T.);
#46=FACE_OUTER_BOUND($,#62,.T.);
#47=FACE_OUTER_BOUND($,#64,.T.);
#48=FACE_OUTER_BOUND($,#66,.T.);
#49=FACE_OUTER_BOUND($,#68,.T.);
#50=FACE_OUTER_BOUND($,#72,.T.);
#51=FACE_OUTER_BOUND($,#74,.T.);
#52=EDGE_LOOP($,(#126));
#53=EDGE_LOOP($,(#127));
#54=EDGE_LOOP($,(#128));
#55=EDGE_LOOP($,(#129));
#56=EDGE_LOOP($,(#130));
#57=EDGE_LOOP($,(#131));
#58=EDGE_LOOP($,(#132));
#59=EDGE_LOOP($,(#133,#134,#135,#136));
#60=EDGE_LOOP($,(#137));
#61=EDGE_LOOP($,(#138));
#62=EDGE_LOOP($,(#139,#140,#141,#142));
#63=EDGE_LOOP($,(#143));
#64=EDGE_LOOP($,(#144));
#65=EDGE_LOOP($,(#145));
#66=EDGE_LOOP($,(#146));
#67=EDGE_LOOP($,(#147));
#68=EDGE_LOOP($,(#148));
#69=EDGE_LOOP($,(#149));
#70=EDGE_LOOP($,(#150));
#71=EDGE_LOOP($,(#151));
#72=EDGE_LOOP($,(#152));
#73=EDGE_LOOP($,(#153));
#74=EDGE_LOOP($,(#154));
#75=EDGE_LOOP($,(#155));
#76=EDGE_LOOP($,(#156));
#77=EDGE_LOOP($,(#157));
#78=EDGE_LOOP($,(#158));
#79=EDGE_LOOP($,(#159));
#80=CIRCLE($,#184,19.);
#81=CIRCLE($,#186,24.);
#82=CIRCLE($,#187,24.);
#83=CIRCLE($,#189,30.5);
#84=CIRCLE($,#190,30.5);
#85=CIRCLE($,#192,25.);
#86=CIRCLE($,#193,25.);
#87=CIRCLE($,#195,25.5);
#88=CIRCLE($,#197,25.);
#89=CIRCLE($,#198,25.);
#90=CIRCLE($,#200,20.);
#91=CIRCLE($,#201,20.);
#92=VERTEX_POINT($,#262);
#93=VERTEX_POINT($,#264);
#94=VERTEX_POINT($,#332);
#95=VERTEX_POINT($,#334);
#96=VERTEX_POINT($,#337);
#97=VERTEX_POINT($,#339);
#98=VERTEX_POINT($,#341);
#99=VERTEX_POINT($,#342);
#100=VERTEX_POINT($,#361);
#101=VERTEX_POINT($,#380);
#102=VERTEX_POINT($,#418);
#103=VERTEX_POINT($,#420);
#104=VERTEX_POINT($,#423);
#105=VERTEX_POINT($,#426);
#106=VERTEX_POINT($,#428);
#107=VERTEX_POINT($,#431);
#108=VERTEX_POINT($,#433);
#109=EDGE_CURVE($,#92,#92,#80,.T.);
#110=EDGE_CURVE($,#93,#93,#37,.T.);
#111=EDGE_CURVE($,#94,#94,#81,.T.);
#112=EDGE_CURVE($,#95,#95,#82,.T.);
#113=EDGE_CURVE($,#96,#96,#83,.T.);
#114=EDGE_CURVE($,#97,#97,#84,.T.);
#115=EDGE_CURVE($,#98,#99,#38,.T.);
#116=EDGE_CURVE($,#98,#100,#39,.T.);
#117=EDGE_CURVE($,#100,#101,#40,.T.);
#118=EDGE_CURVE($,#99,#101,#41,.T.);
#119=EDGE_CURVE($,#102,#102,#85,.T.);
#120=EDGE_CURVE($,#103,#103,#86,.T.);
#121=EDGE_CURVE($,#104,#104,#87,.T.);
#122=EDGE_CURVE($,#105,#105,#88,.T.);
#123=EDGE_CURVE($,#106,#106,#89,.T.);
#124=EDGE_CURVE($,#107,#107,#90,.T.);
#125=EDGE_CURVE($,#108,#108,#91,.T.);
#126=ORIENTED_EDGE($,*,*,#109,.F.);
#127=ORIENTED_EDGE($,*,*,#110,.F.);
#128=ORIENTED_EDGE($,*,*,#111,.F.);
#129=ORIENTED_EDGE($,*,*,#112,.F.);
#130=ORIENTED_EDGE($,*,*,#110,.T.);
#131=ORIENTED_EDGE($,*,*,#113,.F.);
#132=ORIENTED_EDGE($,*,*,#114,.T.);
#133=ORIENTED_EDGE($,*,*,#115,.F.);
#134=ORIENTED_EDGE($,*,*,#116,.T.);
#135=ORIENTED_EDGE($,*,*,#117,.T.);
#136=ORIENTED_EDGE($,*,*,#118,.F.);
#137=ORIENTED_EDGE($,*,*,#119,.T.);
#138=ORIENTED_EDGE($,*,*,#120,.F.);
#139=ORIENTED_EDGE($,*,*,#116,.F.);
#140=ORIENTED_EDGE($,*,*,#115,.T.);
#141=ORIENTED_EDGE($,*,*,#118,.T.);
#142=ORIENTED_EDGE($,*,*,#117,.F.);
#143=ORIENTED_EDGE($,*,*,#121,.F.);
#144=ORIENTED_EDGE($,*,*,#122,.T.);
#145=ORIENTED_EDGE($,*,*,#123,.F.);
#146=ORIENTED_EDGE($,*,*,#124,.T.);
#147=ORIENTED_EDGE($,*,*,#125,.F.);
#148=ORIENTED_EDGE($,*,*,#114,.F.);
#149=ORIENTED_EDGE($,*,*,#120,.T.);
#150=ORIENTED_EDGE($,*,*,#112,.T.);
#151=ORIENTED_EDGE($,*,*,#119,.F.);
#152=ORIENTED_EDGE($,*,*,#113,.T.);
#153=ORIENTED_EDGE($,*,*,#122,.F.);
#154=ORIENTED_EDGE($,*,*,#121,.T.);
#155=ORIENTED_EDGE($,*,*,#124,.F.);
#156=ORIENTED_EDGE($,*,*,#111,.T.);
#157=ORIENTED_EDGE($,*,*,#123,.T.);
#158=ORIENTED_EDGE($,*,*,#109,.T.);
#159=ORIENTED_EDGE($,*,*,#125,.T.);
#160=CYLINDRICAL_SURFACE($,#183,19.);
#161=CYLINDRICAL_SURFACE($,#185,24.);
#162=CYLINDRICAL_SURFACE($,#188,30.5);
#163=CYLINDRICAL_SURFACE($,#191,25.);
#164=CYLINDRICAL_SURFACE($,#194,25.5);
#165=CYLINDRICAL_SURFACE($,#196,25.);
#166=CYLINDRICAL_SURFACE($,#199,20.0000000000005);
#167=ADVANCED_FACE($,(#42,#19),#160,.F.);
#168=ADVANCED_FACE($,(#43,#20,#21),#161,.F.);
#169=ADVANCED_FACE($,(#44,#22,#23),#162,.T.);
#170=ADVANCED_FACE($,(#45,#24),#163,.F.);
#171=ADVANCED_FACE($,(#46,#25),#164,.T.);
#172=ADVANCED_FACE($,(#47,#26),#165,.F.);
#173=ADVANCED_FACE($,(#48,#27),#166,.F.);
#174=ADVANCED_FACE($,(#49,#28),#13,.T.);
#175=ADVANCED_FACE($,(#29,#30),#14,.T.);
#176=ADVANCED_FACE($,(#50,#31),#15,.T.);
#177=ADVANCED_FACE($,(#51,#32),#16,.T.);
#178=ADVANCED_FACE($,(#33,#34),#17,.T.);
#179=ADVANCED_FACE($,(#35,#36),#18,.T.);
#180=CLOSED_SHELL($,(#167,#168,#169,#170,#171,#172,#173,#174,#175,#176,
#177,#178,#179));
#181=MANIFOLD_SOLID_BREP('Solido1',#180);
#182=AXIS2_PLACEMENT_3D('placement',#260,#208,#209);
#183=AXIS2_PLACEMENT_3D($,#261,#210,#211);
#184=AXIS2_PLACEMENT_3D($,#263,#212,#213);
#185=AXIS2_PLACEMENT_3D($,#331,#214,#215);
#186=AXIS2_PLACEMENT_3D($,#333,#216,#217);
#187=AXIS2_PLACEMENT_3D($,#335,#218,#219);
#188=AXIS2_PLACEMENT_3D($,#336,#220,#221);
#189=AXIS2_PLACEMENT_3D($,#338,#222,#223);
#190=AXIS2_PLACEMENT_3D($,#340,#224,#225);
#191=AXIS2_PLACEMENT_3D($,#417,#226,#227);
#192=AXIS2_PLACEMENT_3D($,#419,#228,#229);
#193=AXIS2_PLACEMENT_3D($,#421,#230,#231);
#194=AXIS2_PLACEMENT_3D($,#422,#232,#233);
#195=AXIS2_PLACEMENT_3D($,#424,#234,#235);
#196=AXIS2_PLACEMENT_3D($,#425,#236,#237);
#197=AXIS2_PLACEMENT_3D($,#427,#238,#239);
#198=AXIS2_PLACEMENT_3D($,#429,#240,#241);
#199=AXIS2_PLACEMENT_3D($,#430,#242,#243);
#200=AXIS2_PLACEMENT_3D($,#432,#244,#245);
#201=AXIS2_PLACEMENT_3D($,#434,#246,#247);
#202=AXIS2_PLACEMENT_3D($,#435,#248,#249);
#203=AXIS2_PLACEMENT_3D($,#436,#250,#251);
#204=AXIS2_PLACEMENT_3D($,#437,#252,#253);
#205=AXIS2_PLACEMENT_3D($,#438,#254,#255);
#206=AXIS2_PLACEMENT_3D($,#439,#256,#257);
#207=AXIS2_PLACEMENT_3D($,#440,#258,#259);
#208=DIRECTION('axis',(0.,0.,1.));
#209=DIRECTION('refdir',(1.,0.,0.));
#210=DIRECTION('center_axis',(-1.,0.,-4.48966210391133E-011));
#211=DIRECTION('ref_axis',(-4.48966210391133E-011,0.,1.));
#212=DIRECTION('center_axis',(-1.,0.,-4.489664E-011));
#213=DIRECTION('ref_axis',(-4.48966210391133E-011,0.,1.));
#214=DIRECTION('center_axis',(0.,0.,-1.));
#215=DIRECTION('ref_axis',(-1.,0.,0.));
#216=DIRECTION('center_axis',(0.,0.,-1.));
#217=DIRECTION('ref_axis',(-1.,0.,0.));
#218=DIRECTION('center_axis',(0.,0.,1.));
#219=DIRECTION('ref_axis',(-1.,0.,0.));
#220=DIRECTION('center_axis',(0.,0.,1.));
#221=DIRECTION('ref_axis',(1.,0.,0.));
#222=DIRECTION('center_axis',(0.,0.,1.));
#223=DIRECTION('ref_axis',(1.,0.,0.));
#224=DIRECTION('center_axis',(0.,0.,1.));
#225=DIRECTION('ref_axis',(1.,0.,0.));
#226=DIRECTION('center_axis',(0.,0.,1.));
#227=DIRECTION('ref_axis',(1.,0.,0.));
#228=DIRECTION('center_axis',(0.,0.,1.));
#229=DIRECTION('ref_axis',(1.,0.,0.));
#230=DIRECTION('center_axis',(0.,0.,1.));
#231=DIRECTION('ref_axis',(1.,0.,0.));
#232=DIRECTION('center_axis',(1.,0.,4.489664E-011));
#233=DIRECTION('ref_axis',(4.489664E-011,0.,-1.));
#234=DIRECTION('center_axis',(1.,0.,4.489664E-011));
#235=DIRECTION('ref_axis',(4.489664E-011,0.,-1.));
#236=DIRECTION('center_axis',(0.,0.,1.));
#237=DIRECTION('ref_axis',(1.,0.,0.));
#238=DIRECTION('center_axis',(0.,0.,1.));
#239=DIRECTION('ref_axis',(1.,0.,0.));
#240=DIRECTION('center_axis',(0.,0.,1.));
#241=DIRECTION('ref_axis',(1.,0.,0.));
#242=DIRECTION('center_axis',(1.,1.61532170253178E-013,4.48985992130422E-011));
#243=DIRECTION('ref_axis',(4.48985293388648E-011,0.,-1.));
#244=DIRECTION('center_axis',(1.,0.,4.489664E-011));
#245=DIRECTION('ref_axis',(4.489664E-011,0.,-1.));
#246=DIRECTION('center_axis',(1.,0.,4.489664E-011));
#247=DIRECTION('ref_axis',(4.489664E-011,0.,-1.));
#248=DIRECTION('center_axis',(0.,0.,-1.));
#249=DIRECTION('ref_axis',(-1.,0.,0.));
#250=DIRECTION('center_axis',(0.,0.,-1.));
#251=DIRECTION('ref_axis',(-1.,0.,0.));
#252=DIRECTION('center_axis',(0.,0.,1.));
#253=DIRECTION('ref_axis',(1.,0.,0.));
#254=DIRECTION('center_axis',(1.,0.,4.489664E-011));
#255=DIRECTION('ref_axis',(4.48963533017377E-011,0.,-1.));
#256=DIRECTION('center_axis',(0.,0.,1.));
#257=DIRECTION('ref_axis',(1.,0.,0.));
#258=DIRECTION('center_axis',(1.,0.,4.489664E-011));
#259=DIRECTION('ref_axis',(4.48967085731056E-011,0.,-1.));
#260=CARTESIAN_POINT('',(0.,0.,0.));
#261=CARTESIAN_POINT('Origin',(27.,0.,58.000000001212));
#262=CARTESIAN_POINT('',(27.000000000853,2.32682891837997E-015,39.000000001212));
#263=CARTESIAN_POINT('Origin',(27.,0.,58.000000001212));
#264=CARTESIAN_POINT('',(14.6628782986152,19.,58.0000000006581));
#265=CARTESIAN_POINT('Ctrl Pts',(14.6628782986152,19.,58.0000000006581));
#266=CARTESIAN_POINT('Ctrl Pts',(14.6628782986152,19.,59.2944513100887));
#267=CARTESIAN_POINT('Ctrl Pts',(14.8393331838543,18.8668853266191,60.5811863565018));
#268=CARTESIAN_POINT('Ctrl Pts',(15.4696189949643,18.3536388209811,63.0760051781761));
#269=CARTESIAN_POINT('Ctrl Pts',(15.9202067092896,17.9737057393777,64.284948067646));
#270=CARTESIAN_POINT('Ctrl Pts',(16.957836262935,16.9982014193219,66.5799673282532));
#271=CARTESIAN_POINT('Ctrl Pts',(17.5443424408521,16.4016974924944,67.6678417191251));
#272=CARTESIAN_POINT('Ctrl Pts',(18.7301447995522,15.0333398932913,69.6825312196266));
#273=CARTESIAN_POINT('Ctrl Pts',(19.3292219886921,14.2609480394671,70.6091096464961));
#274=CARTESIAN_POINT('Ctrl Pts',(20.4288933250153,12.6331611516511,72.2368965343481));
#275=CARTESIAN_POINT('Ctrl Pts',(20.9734256403643,11.7208944188339,73.003486162366));
#276=CARTESIAN_POINT('Ctrl Pts',(21.9772825750848,9.70891341491386,74.3774528983066));
#277=CARTESIAN_POINT('Ctrl Pts',(22.4362205972897,8.60902753726058,74.9848611381023));
#278=CARTESIAN_POINT('Ctrl Pts',(23.1959048293351,6.2808726991013,75.9764155990888));
#279=CARTESIAN_POINT('Ctrl Pts',(23.4971579016389,5.04990707300531,76.3614136017182));
#280=CARTESIAN_POINT('Ctrl Pts',(23.899311942351,2.53788880773378,76.8733195627705));
#281=CARTESIAN_POINT('Ctrl Pts',(24.,1.25675572888273,77.0000000010773));
#282=CARTESIAN_POINT('Ctrl Pts',(24.,-1.25675572888273,77.0000000010773));
#283=CARTESIAN_POINT('Ctrl Pts',(23.899311942351,-2.53788880773378,76.8733195627705));
#284=CARTESIAN_POINT('Ctrl Pts',(23.4971579016389,-5.04990707300531,76.3614136017182));
#285=CARTESIAN_POINT('Ctrl Pts',(23.1959048293351,-6.28087269910131,75.9764155990888));
#286=CARTESIAN_POINT('Ctrl Pts',(22.4362205972897,-8.60902753726059,74.9848611381023));
#287=CARTESIAN_POINT('Ctrl Pts',(21.9772825750848,-9.70891341491386,74.3774528983066));
#288=CARTESIAN_POINT('Ctrl Pts',(20.9734256403643,-11.7208944188339,73.003486162366));
#289=CARTESIAN_POINT('Ctrl Pts',(20.4288933250153,-12.6331611516511,72.2368965343481));
#290=CARTESIAN_POINT('Ctrl Pts',(19.3292219886921,-14.2609480394671,70.6091096464961));
#291=CARTESIAN_POINT('Ctrl Pts',(18.7301447995522,-15.0333398932913,69.6825312196266));
#292=CARTESIAN_POINT('Ctrl Pts',(17.5443424408521,-16.4016974924944,67.6678417191251));
#293=CARTESIAN_POINT('Ctrl Pts',(16.957836262935,-16.9982014193219,66.5799673282532));
#294=CARTESIAN_POINT('Ctrl Pts',(15.9202067092896,-17.9737057393777,64.284948067646));
#295=CARTESIAN_POINT('Ctrl Pts',(15.4696189949643,-18.3536388209811,63.0760051781761));
#296=CARTESIAN_POINT('Ctrl Pts',(14.8393331838543,-18.8668853266191,60.5811863565018));
#297=CARTESIAN_POINT('Ctrl Pts',(14.6628782986152,-19.,59.2944513100887));
#298=CARTESIAN_POINT('Ctrl Pts',(14.6628782986152,-19.,56.7055486912709));
#299=CARTESIAN_POINT('Ctrl Pts',(14.8393331838435,-18.8668853266273,55.4188136448983));
#300=CARTESIAN_POINT('Ctrl Pts',(15.4696189949333,-18.353638821007,52.9239948233103));
#301=CARTESIAN_POINT('Ctrl Pts',(15.920206709249,-17.9737057394132,51.7150519338859));
#302=CARTESIAN_POINT('Ctrl Pts',(16.9578362628799,-16.9982014193763,49.4200326733778));
#303=CARTESIAN_POINT('Ctrl Pts',(17.5443424407921,-16.401697492558,48.3321582825586));
#304=CARTESIAN_POINT('Ctrl Pts',(18.7301447994843,-15.0333398933753,46.3174687821635));
#305=CARTESIAN_POINT('Ctrl Pts',(19.3292219886212,-14.2609480395623,45.3908903553479));
#306=CARTESIAN_POINT('Ctrl Pts',(20.4288933249558,-12.6331611517488,43.7631034675704));
#307=CARTESIAN_POINT('Ctrl Pts',(20.9734256403181,-11.7208944189181,42.9965138395811));
#308=CARTESIAN_POINT('Ctrl Pts',(21.97728257506,-9.70891341497175,41.6225471036992));
#309=CARTESIAN_POINT('Ctrl Pts',(22.4362205972731,-8.60902753730557,41.0151388639338));
#310=CARTESIAN_POINT('Ctrl Pts',(23.1959048293295,-6.28087269912426,40.0235844030008));
#311=CARTESIAN_POINT('Ctrl Pts',(23.4971579016362,-5.04990707301922,39.6385864003947));
#312=CARTESIAN_POINT('Ctrl Pts',(23.8993119423511,-2.53788880773577,39.1266804393749));
#313=CARTESIAN_POINT('Ctrl Pts',(24.,-1.25675572888187,39.0000000010773));
#314=CARTESIAN_POINT('Ctrl Pts',(24.,1.25675572888186,39.0000000010773));
#315=CARTESIAN_POINT('Ctrl Pts',(23.8993119423511,2.53788880773577,39.1266804393749));
#316=CARTESIAN_POINT('Ctrl Pts',(23.4971579016362,5.04990707301921,39.6385864003947));
#317=CARTESIAN_POINT('Ctrl Pts',(23.1959048293295,6.28087269912426,40.0235844030008));
#318=CARTESIAN_POINT('Ctrl Pts',(22.4362205972731,8.60902753730557,41.0151388639338));
#319=CARTESIAN_POINT('Ctrl Pts',(21.97728257506,9.70891341497175,41.6225471036992));
#320=CARTESIAN_POINT('Ctrl Pts',(20.9734256403181,11.7208944189181,42.9965138395811));
#321=CARTESIAN_POINT('Ctrl Pts',(20.4288933249558,12.6331611517488,43.7631034675704));
#322=CARTESIAN_POINT('Ctrl Pts',(19.3292219886212,14.2609480395623,45.3908903553479));
#323=CARTESIAN_POINT('Ctrl Pts',(18.7301447994843,15.0333398933753,46.3174687821635));
#324=CARTESIAN_POINT('Ctrl Pts',(17.5443424407921,16.401697492558,48.3321582825586));
#325=CARTESIAN_POINT('Ctrl Pts',(16.9578362628799,16.9982014193763,49.4200326733779));
#326=CARTESIAN_POINT('Ctrl Pts',(15.920206709249,17.9737057394132,51.715051933886));
#327=CARTESIAN_POINT('Ctrl Pts',(15.4696189949333,18.353638821007,52.9239948233103));
#328=CARTESIAN_POINT('Ctrl Pts',(14.8393331838435,18.8668853266273,55.4188136448983));
#329=CARTESIAN_POINT('Ctrl Pts',(14.6628782986152,19.,56.7055486912709));
#330=CARTESIAN_POINT('Ctrl Pts',(14.6628782986152,19.,58.0000000006581));
#331=CARTESIAN_POINT('Origin',(0.,0.,85.));
#332=CARTESIAN_POINT('',(24.,2.93915231795365E-015,85.));
#333=CARTESIAN_POINT('Origin',(0.,0.,85.));
#334=CARTESIAN_POINT('',(24.,2.93915231795365E-015,31.));
#335=CARTESIAN_POINT('Origin',(0.,0.,31.));
#336=CARTESIAN_POINT('Origin',(0.,0.,0.));
#337=CARTESIAN_POINT('',(-30.5,-3.735049E-015,116.));
#338=CARTESIAN_POINT('Origin',(0.,0.,116.));
#339=CARTESIAN_POINT('',(30.5,-7.470099E-015,0.));
#340=CARTESIAN_POINT('Origin',(0.,0.,0.));
#341=CARTESIAN_POINT('',(16.733200530682,-25.5,58.000000000751));
#342=CARTESIAN_POINT('',(30.5,-2.98372437868011E-015,32.5000000013694));
#343=CARTESIAN_POINT('Ctrl Pts',(16.7332005306815,-25.5,58.0000000007513));
#344=CARTESIAN_POINT('Ctrl Pts',(16.7332005306815,-25.5,56.2273224090391));
#345=CARTESIAN_POINT('Ctrl Pts',(17.0220685475532,-25.3152862718464,54.4927040075277));
#346=CARTESIAN_POINT('Ctrl Pts',(18.0106071427354,-24.6217904745859,51.149286242122));
#347=CARTESIAN_POINT('Ctrl Pts',(18.7046251605562,-24.1128257154465,49.5388560864021));
#348=CARTESIAN_POINT('Ctrl Pts',(20.2745405842631,-22.8086473841703,46.4767659625085));
#349=CARTESIAN_POINT('Ctrl Pts',(21.1499700458014,-22.0122069778718,45.0242034459784));
#350=CARTESIAN_POINT('Ctrl Pts',(22.9044354344526,-20.1803202962956,42.326352543617));
#351=CARTESIAN_POINT('Ctrl Pts',(23.7835562214156,-19.1440945476112,41.0816487081552));
#352=CARTESIAN_POINT('Ctrl Pts',(25.3811232656029,-16.964596630913,38.9021507915481));
#353=CARTESIAN_POINT('Ctrl Pts',(26.1639068051424,-15.7488001482096,37.878420651425));
#354=CARTESIAN_POINT('Ctrl Pts',(27.6041141500522,-13.0609190896057,36.0383276059272));
#355=CARTESIAN_POINT('Ctrl Pts',(28.2610793064991,-11.58859215804,35.2219597773957));
#356=CARTESIAN_POINT('Ctrl Pts',(29.3482736237261,-8.46539634701372,33.8862760758301));
#357=CARTESIAN_POINT('Ctrl Pts',(29.7793091492644,-6.81080705770775,33.3657865861671));
#358=CARTESIAN_POINT('Ctrl Pts',(30.3553192241281,-3.42767282916852,32.6724927735642));
#359=CARTESIAN_POINT('Ctrl Pts',(30.5,-1.69901404178006,32.5000000013694));
#360=CARTESIAN_POINT('Ctrl Pts',(30.5,0.,32.5000000013694));
#361=CARTESIAN_POINT('',(30.5,-7.470099E-015,83.500000001369));
#362=CARTESIAN_POINT('Ctrl Pts',(16.7332005306815,-25.5,58.0000000007513));
#363=CARTESIAN_POINT('Ctrl Pts',(16.7332005306815,-25.5,59.7726775924832));
#364=CARTESIAN_POINT('Ctrl Pts',(17.0220685475576,-25.3152862718433,61.5072959940162));
#365=CARTESIAN_POINT('Ctrl Pts',(18.010607142732,-24.6217904745882,64.8507137594834));
#366=CARTESIAN_POINT('Ctrl Pts',(18.7046251605416,-24.112825715457,66.4611439152427));
#367=CARTESIAN_POINT('Ctrl Pts',(20.2745405842193,-22.8086473842083,69.5232340392331));
#368=CARTESIAN_POINT('Ctrl Pts',(21.1499700457397,-22.0122069779295,70.9757965558193));
#369=CARTESIAN_POINT('Ctrl Pts',(22.9044354343586,-20.1803202964006,73.6736474583016));
#370=CARTESIAN_POINT('Ctrl Pts',(23.7835562213073,-19.1440945477437,74.9183512938281));
#371=CARTESIAN_POINT('Ctrl Pts',(25.3811232654883,-16.9645966310838,77.0978492105791));
#372=CARTESIAN_POINT('Ctrl Pts',(26.1639068050353,-15.7488001483879,78.1215793507855));
#373=CARTESIAN_POINT('Ctrl Pts',(27.6041141499664,-13.0609190897874,79.961672396444));
#374=CARTESIAN_POINT('Ctrl Pts',(28.2610793064271,-11.5885921582177,80.7780402250529));
#375=CARTESIAN_POINT('Ctrl Pts',(29.3482736236825,-8.46539634716809,82.1137239267522));
#376=CARTESIAN_POINT('Ctrl Pts',(29.7793091492353,-6.8108070578427,82.6342134164717));
#377=CARTESIAN_POINT('Ctrl Pts',(30.3553192241208,-3.42767282924808,83.3275072291528));
#378=CARTESIAN_POINT('Ctrl Pts',(30.5,-1.69901404182362,83.5000000013694));
#379=CARTESIAN_POINT('Ctrl Pts',(30.5,-3.33066907387547E-015,83.5000000013694));
#380=CARTESIAN_POINT('',(16.733200530682,25.5,58.000000000751));
#381=CARTESIAN_POINT('Ctrl Pts',(30.5,2.4980018054066E-015,83.5000000013694));
#382=CARTESIAN_POINT('Ctrl Pts',(30.5,1.69901404182362,83.5000000013694));
#383=CARTESIAN_POINT('Ctrl Pts',(30.3553192241208,3.42767282924809,83.3275072291528));
#384=CARTESIAN_POINT('Ctrl Pts',(29.7793091492353,6.81080705784271,82.6342134164717));
#385=CARTESIAN_POINT('Ctrl Pts',(29.3482736236825,8.4653963471681,82.1137239267522));
#386=CARTESIAN_POINT('Ctrl Pts',(28.2610793064271,11.5885921582177,80.7780402250529));
#387=CARTESIAN_POINT('Ctrl Pts',(27.6041141499664,13.0609190897874,79.961672396444));
#388=CARTESIAN_POINT('Ctrl Pts',(26.1639068050353,15.7488001483879,78.1215793507855));
#389=CARTESIAN_POINT('Ctrl Pts',(25.3811232654883,16.9645966310838,77.0978492105791));
#390=CARTESIAN_POINT('Ctrl Pts',(23.7835562213073,19.1440945477437,74.9183512938281));
#391=CARTESIAN_POINT('Ctrl Pts',(22.9044354343586,20.1803202964006,73.6736474583016));
#392=CARTESIAN_POINT('Ctrl Pts',(21.1499700457397,22.0122069779295,70.9757965558193));
#393=CARTESIAN_POINT('Ctrl Pts',(20.2745405842193,22.8086473842083,69.5232340392331));
#394=CARTESIAN_POINT('Ctrl Pts',(18.7046251605416,24.112825715457,66.4611439152427));
#395=CARTESIAN_POINT('Ctrl Pts',(18.010607142732,24.6217904745882,64.8507137594834));
#396=CARTESIAN_POINT('Ctrl Pts',(17.0220685475576,25.3152862718433,61.5072959940162));
#397=CARTESIAN_POINT('Ctrl Pts',(16.7332005306815,25.5,59.7726775924832));
#398=CARTESIAN_POINT('Ctrl Pts',(16.7332005306815,25.5,58.0000000007513));
#399=CARTESIAN_POINT('Ctrl Pts',(30.5,-5.96744875736022E-015,32.5000000013694));
#400=CARTESIAN_POINT('Ctrl Pts',(30.5,1.69901404178005,32.5000000013694));
#401=CARTESIAN_POINT('Ctrl Pts',(30.3553192241281,3.42767282916851,32.6724927735642));
#402=CARTESIAN_POINT('Ctrl Pts',(29.7793091492645,6.81080705770774,33.3657865861671));
#403=CARTESIAN_POINT('Ctrl Pts',(29.3482736237261,8.4653963470137,33.8862760758301));
#404=CARTESIAN_POINT('Ctrl Pts',(28.2610793064991,11.58859215804,35.2219597773957));
#405=CARTESIAN_POINT('Ctrl Pts',(27.6041141500522,13.0609190896057,36.0383276059272));
#406=CARTESIAN_POINT('Ctrl Pts',(26.1639068051425,15.7488001482096,37.8784206514249));
#407=CARTESIAN_POINT('Ctrl Pts',(25.3811232656029,16.964596630913,38.9021507915481));
#408=CARTESIAN_POINT('Ctrl Pts',(23.7835562214156,19.1440945476112,41.0816487081552));
#409=CARTESIAN_POINT('Ctrl Pts',(22.9044354344526,20.1803202962956,42.326352543617));
#410=CARTESIAN_POINT('Ctrl Pts',(21.1499700458014,22.0122069778718,45.0242034459784));
#411=CARTESIAN_POINT('Ctrl Pts',(20.2745405842631,22.8086473841703,46.4767659625085));
#412=CARTESIAN_POINT('Ctrl Pts',(18.7046251605562,24.1128257154465,49.538856086402));
#413=CARTESIAN_POINT('Ctrl Pts',(18.0106071427354,24.6217904745859,51.149286242122));
#414=CARTESIAN_POINT('Ctrl Pts',(17.0220685475532,25.3152862718464,54.4927040075277));
#415=CARTESIAN_POINT('Ctrl Pts',(16.7332005306815,25.5,56.2273224090391));
#416=CARTESIAN_POINT('Ctrl Pts',(16.7332005306815,25.5,58.0000000007513));
#417=CARTESIAN_POINT('Origin',(4.44089209850063E-015,0.,15.5));
#418=CARTESIAN_POINT('',(-25.,-3.061516E-015,31.));
#419=CARTESIAN_POINT('Origin',(0.,0.,31.));
#420=CARTESIAN_POINT('',(-25.,-3.061516E-015,0.));
#421=CARTESIAN_POINT('Origin',(0.,0.,0.));
#422=CARTESIAN_POINT('Origin',(0.,0.,58.));
#423=CARTESIAN_POINT('',(52.9999999988552,-3.122746E-015,83.5000000023796));
#424=CARTESIAN_POINT('Origin',(53.,0.,58.00000000238));
#425=CARTESIAN_POINT('Origin',(4.44089209850063E-015,0.,100.5));
#426=CARTESIAN_POINT('',(-25.,-3.061516E-015,116.));
#427=CARTESIAN_POINT('Origin',(0.,0.,116.));
#428=CARTESIAN_POINT('',(-25.,-3.061516E-015,85.));
#429=CARTESIAN_POINT('Origin',(0.,0.,85.));
#430=CARTESIAN_POINT('Origin',(40.,0.,58.0000000017962));
#431=CARTESIAN_POINT('',(52.9999999991021,-2.449213E-015,78.0000000023793));
#432=CARTESIAN_POINT('Origin',(53.,0.,58.00000000238));
#433=CARTESIAN_POINT('',(26.9999999991021,-2.449213E-015,78.000000001212));
#434=CARTESIAN_POINT('Origin',(27.,0.,58.000000001212));
#435=CARTESIAN_POINT('Origin',(0.,0.,0.));
#436=CARTESIAN_POINT('Origin',(0.,0.,31.));
#437=CARTESIAN_POINT('Origin',(0.,0.,116.));
#438=CARTESIAN_POINT('Origin',(53.,0.,58.00000000238));
#439=CARTESIAN_POINT('Origin',(0.,0.,85.));
#440=CARTESIAN_POINT('Origin',(27.,0.,58.000000001212));
#441=UNCERTAINTY_MEASURE_WITH_UNIT(LENGTH_MEASURE(0.01),#443,
'DISTANCE_ACCURACY_VALUE',
'Maximum model space distance between geometric entities at asserted c
onnectivities');
#442=(
GEOMETRIC_REPRESENTATION_CONTEXT(3)
GLOBAL_UNCERTAINTY_ASSIGNED_CONTEXT((#441))
GLOBAL_UNIT_ASSIGNED_CONTEXT((#443,#446,#444))
REPRESENTATION_CONTEXT('','3D')
);
#443=(
LENGTH_UNIT()
NAMED_UNIT(*)
SI_UNIT(.MILLI.,.METRE.)
);
#444=(
NAMED_UNIT(*)
SI_UNIT($,.STERADIAN.)
SOLID_ANGLE_UNIT()
);
#445=DIMENSIONAL_EXPONENTS(0.,0.,0.,0.,0.,0.,0.);
#446=(
CONVERSION_BASED_UNIT('degree',#448)
NAMED_UNIT(#445)
PLANE_ANGLE_UNIT()
);
#447=(
NAMED_UNIT(*)
PLANE_ANGLE_UNIT()
SI_UNIT($,.RADIAN.)
);
#448=PLANE_ANGLE_MEASURE_WITH_UNIT(PLANE_ANGLE_MEASURE(0.01745329252),#447);
#449=SHAPE_DEFINITION_REPRESENTATION(#450,#451);
#450=PRODUCT_DEFINITION_SHAPE('',$,#453);
#451=SHAPE_REPRESENTATION('',(#182),#442);
#452=PRODUCT_DEFINITION_CONTEXT('3D Mechanical Parts',#456,'design');
#453=PRODUCT_DEFINITION('TRIV050040','TRIV050040',#454,#452);
#454=PRODUCT_DEFINITION_FORMATION('',$,#458);
#455=APPLICATION_PROTOCOL_DEFINITION('international standard',
'automotive_design',2009,#456);
#456=APPLICATION_CONTEXT(
'Core Data for Automotive Mechanical Design Process');
#457=PRODUCT_CONTEXT('3D Mechanical Parts',#456,'mechanical');
#458=PRODUCT('TRIV050040','TRIV050040',$,(#457));
#459=PRESENTATION_STYLE_ASSIGNMENT((#460));
#460=SURFACE_STYLE_USAGE(.BOTH.,#461);
#461=SURFACE_SIDE_STYLE($,(#462));
#462=SURFACE_STYLE_FILL_AREA(#463);
#463=FILL_AREA_STYLE($,(#464));
#464=FILL_AREA_STYLE_COLOUR($,#465);
#465=COLOUR_RGB('',0.509803921568627,0.509803921568627,0.588235294117647);
ENDSEC;
END-ISO-10303-21;
