ISO-10303-21;
HEADER;
FILE_DESCRIPTION( ( 'STEP AP214' ), '1' );
FILE_NAME( 'p:/temp/worker_9/temp/exporttempdir_5684_623_7o1XT/format_0/22056004007(architecture400).stp', '2021-11-18T07:27:49', ( 'License CC BY-ND 4.0' ), ( 'CADENAS' ), ' ', 'PARTsolutions', ' ' );
FILE_SCHEMA( ( 'AUTOMOTIVE_DESIGN { 1 0 10303 214 1 1 1 1 }' ) );
ENDSEC;
DATA;
#1 = MECHANICAL_DESIGN_GEOMETRIC_PRESENTATION_REPRESENTATION( ' ', ( #10, #11, #12, #13, #14, #15, #16, #17, #18, #19, #20, #21, #22 ), #6 );
#2 = PRODUCT_DEFINITION_CONTEXT( '', #23, 'design' );
#3 = APPLICATION_PROTOCOL_DEFINITION( 'international standard', 'automotive_design', 2001, #23 );
#4 = PRODUCT_CATEGORY_RELATIONSHIP( 'NONE', 'NONE', #24, #25 );
#5 = SHAPE_DEFINITION_REPRESENTATION( #26, #27 );
#6 =  ( GEOMETRIC_REPRESENTATION_CONTEXT( 3 )GLOBAL_UNCERTAINTY_ASSIGNED_CONTEXT( ( #30 ) )GLOBAL_UNIT_ASSIGNED_CONTEXT( ( #32, #33, #34 ) )REPRESENTATION_CONTEXT( 'NONE', 'WORKSPACE' ) );
#10 = STYLED_ITEM( '', ( #36 ), #37 );
#11 = STYLED_ITEM( '', ( #38 ), #39 );
#12 = STYLED_ITEM( '', ( #40 ), #41 );
#13 = STYLED_ITEM( '', ( #42 ), #43 );
#14 = STYLED_ITEM( '', ( #44 ), #45 );
#15 = STYLED_ITEM( '', ( #46 ), #47 );
#16 = STYLED_ITEM( '', ( #48 ), #49 );
#17 = STYLED_ITEM( '', ( #50 ), #51 );
#18 = STYLED_ITEM( '', ( #52 ), #53 );
#19 = STYLED_ITEM( '', ( #54 ), #55 );
#20 = STYLED_ITEM( '', ( #56 ), #57 );
#21 = STYLED_ITEM( '', ( #58 ), #59 );
#22 = STYLED_ITEM( '', ( #60 ), #61 );
#23 = APPLICATION_CONTEXT( 'core data for automotive mechanical design processes' );
#24 = PRODUCT_CATEGORY( 'part', 'NONE' );
#25 = PRODUCT_RELATED_PRODUCT_CATEGORY( 'detail', ' ', ( #62 ) );
#26 = PRODUCT_DEFINITION_SHAPE( 'NONE', 'NONE', #63 );
#27 = ADVANCED_BREP_SHAPE_REPRESENTATION( '_22056004007(architecture400)', ( #64, #65 ), #6 );
#30 = UNCERTAINTY_MEASURE_WITH_UNIT( LENGTH_MEASURE( 0.00100000000000000 ), #32, '', '' );
#32 =  ( CONVERSION_BASED_UNIT( 'MILLIMETRE', #68 )LENGTH_UNIT(  )NAMED_UNIT( #71 ) );
#33 =  ( NAMED_UNIT( #73 )PLANE_ANGLE_UNIT(  )SI_UNIT( $, .RADIAN. ) );
#34 =  ( NAMED_UNIT( #73 )SI_UNIT( $, .STERADIAN. )SOLID_ANGLE_UNIT(  ) );
#36 = PRESENTATION_STYLE_ASSIGNMENT( ( #79 ) );
#37 = ADVANCED_FACE( '', ( #80, #81, #82 ), #83, .F. );
#38 = PRESENTATION_STYLE_ASSIGNMENT( ( #84 ) );
#39 = ADVANCED_FACE( '', ( #85, #86 ), #87, .F. );
#40 = PRESENTATION_STYLE_ASSIGNMENT( ( #88 ) );
#41 = ADVANCED_FACE( '', ( #89, #90 ), #91, .T. );
#42 = PRESENTATION_STYLE_ASSIGNMENT( ( #92 ) );
#43 = ADVANCED_FACE( '', ( #93, #94 ), #95, .F. );
#44 = PRESENTATION_STYLE_ASSIGNMENT( ( #96 ) );
#45 = ADVANCED_FACE( '', ( #97, #98 ), #99, .F. );
#46 = PRESENTATION_STYLE_ASSIGNMENT( ( #100 ) );
#47 = ADVANCED_FACE( '', ( #101, #102 ), #103, .T. );
#48 = PRESENTATION_STYLE_ASSIGNMENT( ( #104 ) );
#49 = ADVANCED_FACE( '', ( #105, #106 ), #107, .F. );
#50 = PRESENTATION_STYLE_ASSIGNMENT( ( #108 ) );
#51 = ADVANCED_FACE( '', ( #109, #110, #111 ), #112, .T. );
#52 = PRESENTATION_STYLE_ASSIGNMENT( ( #113 ) );
#53 = ADVANCED_FACE( '', ( #114, #115 ), #116, .T. );
#54 = PRESENTATION_STYLE_ASSIGNMENT( ( #117 ) );
#55 = ADVANCED_FACE( '', ( #118, #119 ), #120, .T. );
#56 = PRESENTATION_STYLE_ASSIGNMENT( ( #121 ) );
#57 = ADVANCED_FACE( '', ( #122, #123 ), #124, .F. );
#58 = PRESENTATION_STYLE_ASSIGNMENT( ( #125 ) );
#59 = ADVANCED_FACE( '', ( #126, #127 ), #128, .T. );
#60 = PRESENTATION_STYLE_ASSIGNMENT( ( #129 ) );
#61 = ADVANCED_FACE( '', ( #130, #131 ), #132, .T. );
#62 = PRODUCT( '_22056004007(architecture400)', '_22056004007(architecture400)', 'PART-_22056004007(architecture400)-DESC', ( #133 ) );
#63 = PRODUCT_DEFINITION( 'NONE', 'NONE', #134, #2 );
#64 = MANIFOLD_SOLID_BREP( '_22056004007(architecture400)', #135 );
#65 = AXIS2_PLACEMENT_3D( '', #136, #137, #138 );
#68 = LENGTH_MEASURE_WITH_UNIT( LENGTH_MEASURE( 1.00000000000000 ), #139 );
#71 = DIMENSIONAL_EXPONENTS( 1.00000000000000, 0.000000000000000, 0.000000000000000, 0.000000000000000, 0.000000000000000, 0.000000000000000, 0.000000000000000 );
#73 = DIMENSIONAL_EXPONENTS( 0.000000000000000, 0.000000000000000, 0.000000000000000, 0.000000000000000, 0.000000000000000, 0.000000000000000, 0.000000000000000 );
#79 = SURFACE_STYLE_USAGE( .BOTH., #140 );
#80 = FACE_OUTER_BOUND( '', #141, .T. );
#81 = FACE_BOUND( '', #142, .T. );
#82 = FACE_OUTER_BOUND( '', #143, .T. );
#83 = CYLINDRICAL_SURFACE( '', #144, 17.8333333333000 );
#84 = SURFACE_STYLE_USAGE( .BOTH., #145 );
#85 = FACE_OUTER_BOUND( '', #146, .T. );
#86 = FACE_OUTER_BOUND( '', #147, .T. );
#87 = CYLINDRICAL_SURFACE( '', #148, 20.0000000000000 );
#88 = SURFACE_STYLE_USAGE( .BOTH., #149 );
#89 = FACE_BOUND( '', #150, .T. );
#90 = FACE_OUTER_BOUND( '', #151, .T. );
#91 = PLANE( '', #152 );
#92 = SURFACE_STYLE_USAGE( .BOTH., #153 );
#93 = FACE_BOUND( '', #154, .T. );
#94 = FACE_OUTER_BOUND( '', #155, .T. );
#95 = PLANE( '', #156 );
#96 = SURFACE_STYLE_USAGE( .BOTH., #157 );
#97 = FACE_OUTER_BOUND( '', #158, .T. );
#98 = FACE_OUTER_BOUND( '', #159, .T. );
#99 = CYLINDRICAL_SURFACE( '', #160, 20.0000000000000 );
#100 = SURFACE_STYLE_USAGE( .BOTH., #161 );
#101 = FACE_BOUND( '', #162, .T. );
#102 = FACE_OUTER_BOUND( '', #163, .T. );
#103 = PLANE( '', #164 );
#104 = SURFACE_STYLE_USAGE( .BOTH., #165 );
#105 = FACE_OUTER_BOUND( '', #166, .T. );
#106 = FACE_OUTER_BOUND( '', #167, .T. );
#107 = CYLINDRICAL_SURFACE( '', #168, 17.8333333333000 );
#108 = SURFACE_STYLE_USAGE( .BOTH., #169 );
#109 = FACE_OUTER_BOUND( '', #170, .T. );
#110 = FACE_OUTER_BOUND( '', #171, .T. );
#111 = FACE_BOUND( '', #172, .T. );
#112 = CYLINDRICAL_SURFACE( '', #173, 26.5000000000000 );
#113 = SURFACE_STYLE_USAGE( .BOTH., #174 );
#114 = FACE_OUTER_BOUND( '', #175, .T. );
#115 = FACE_OUTER_BOUND( '', #176, .T. );
#116 = CYLINDRICAL_SURFACE( '', #177, 26.5000000000000 );
#117 = SURFACE_STYLE_USAGE( .BOTH., #178 );
#118 = FACE_BOUND( '', #179, .T. );
#119 = FACE_OUTER_BOUND( '', #180, .T. );
#120 = PLANE( '', #181 );
#121 = SURFACE_STYLE_USAGE( .BOTH., #182 );
#122 = FACE_OUTER_BOUND( '', #183, .T. );
#123 = FACE_OUTER_BOUND( '', #184, .T. );
#124 = CYLINDRICAL_SURFACE( '', #185, 20.0000000000000 );
#125 = SURFACE_STYLE_USAGE( .BOTH., #186 );
#126 = FACE_OUTER_BOUND( '', #187, .T. );
#127 = FACE_BOUND( '', #188, .T. );
#128 = PLANE( '', #189 );
#129 = SURFACE_STYLE_USAGE( .BOTH., #190 );
#130 = FACE_BOUND( '', #191, .T. );
#131 = FACE_OUTER_BOUND( '', #192, .T. );
#132 = PLANE( '', #193 );
#133 = PRODUCT_CONTEXT( '', #23, 'mechanical' );
#134 = PRODUCT_DEFINITION_FORMATION_WITH_SPECIFIED_SOURCE( ' ', 'NONE', #62, .NOT_KNOWN. );
#135 = CLOSED_SHELL( '', ( #37, #51, #61, #43, #53, #41, #45, #47, #59, #39, #57, #55, #49 ) );
#136 = CARTESIAN_POINT( '', ( 0.000000000000000, 0.000000000000000, 0.000000000000000 ) );
#137 = DIRECTION( '', ( 0.000000000000000, 0.000000000000000, 1.00000000000000 ) );
#138 = DIRECTION( '', ( 1.00000000000000, 0.000000000000000, 0.000000000000000 ) );
#139 =  ( LENGTH_UNIT(  )NAMED_UNIT( #71 )SI_UNIT( .MILLI., .METRE. ) );
#140 = SURFACE_SIDE_STYLE( '', ( #195 ) );
#141 = EDGE_LOOP( '', ( #196 ) );
#142 = EDGE_LOOP( '', ( #197, #198 ) );
#143 = EDGE_LOOP( '', ( #199 ) );
#144 = AXIS2_PLACEMENT_3D( '', #200, #201, #202 );
#145 = SURFACE_SIDE_STYLE( '', ( #203 ) );
#146 = EDGE_LOOP( '', ( #204 ) );
#147 = EDGE_LOOP( '', ( #205 ) );
#148 = AXIS2_PLACEMENT_3D( '', #206, #207, #208 );
#149 = SURFACE_SIDE_STYLE( '', ( #209 ) );
#150 = EDGE_LOOP( '', ( #210 ) );
#151 = EDGE_LOOP( '', ( #211 ) );
#152 = AXIS2_PLACEMENT_3D( '', #212, #213, #214 );
#153 = SURFACE_SIDE_STYLE( '', ( #215 ) );
#154 = EDGE_LOOP( '', ( #216 ) );
#155 = EDGE_LOOP( '', ( #217 ) );
#156 = AXIS2_PLACEMENT_3D( '', #218, #219, #220 );
#157 = SURFACE_SIDE_STYLE( '', ( #221 ) );
#158 = EDGE_LOOP( '', ( #222 ) );
#159 = EDGE_LOOP( '', ( #223 ) );
#160 = AXIS2_PLACEMENT_3D( '', #224, #225, #226 );
#161 = SURFACE_SIDE_STYLE( '', ( #227 ) );
#162 = EDGE_LOOP( '', ( #228 ) );
#163 = EDGE_LOOP( '', ( #229 ) );
#164 = AXIS2_PLACEMENT_3D( '', #230, #231, #232 );
#165 = SURFACE_SIDE_STYLE( '', ( #233 ) );
#166 = EDGE_LOOP( '', ( #234, #235 ) );
#167 = EDGE_LOOP( '', ( #236 ) );
#168 = AXIS2_PLACEMENT_3D( '', #237, #238, #239 );
#169 = SURFACE_SIDE_STYLE( '', ( #240 ) );
#170 = EDGE_LOOP( '', ( #241 ) );
#171 = EDGE_LOOP( '', ( #242 ) );
#172 = EDGE_LOOP( '', ( #243, #244 ) );
#173 = AXIS2_PLACEMENT_3D( '', #245, #246, #247 );
#174 = SURFACE_SIDE_STYLE( '', ( #248 ) );
#175 = EDGE_LOOP( '', ( #249 ) );
#176 = EDGE_LOOP( '', ( #250, #251 ) );
#177 = AXIS2_PLACEMENT_3D( '', #252, #253, #254 );
#178 = SURFACE_SIDE_STYLE( '', ( #255 ) );
#179 = EDGE_LOOP( '', ( #256 ) );
#180 = EDGE_LOOP( '', ( #257 ) );
#181 = AXIS2_PLACEMENT_3D( '', #258, #259, #260 );
#182 = SURFACE_SIDE_STYLE( '', ( #261 ) );
#183 = EDGE_LOOP( '', ( #262 ) );
#184 = EDGE_LOOP( '', ( #263 ) );
#185 = AXIS2_PLACEMENT_3D( '', #264, #265, #266 );
#186 = SURFACE_SIDE_STYLE( '', ( #267 ) );
#187 = EDGE_LOOP( '', ( #268 ) );
#188 = EDGE_LOOP( '', ( #269 ) );
#189 = AXIS2_PLACEMENT_3D( '', #270, #271, #272 );
#190 = SURFACE_SIDE_STYLE( '', ( #273 ) );
#191 = EDGE_LOOP( '', ( #274 ) );
#192 = EDGE_LOOP( '', ( #275 ) );
#193 = AXIS2_PLACEMENT_3D( '', #276, #277, #278 );
#195 = SURFACE_STYLE_FILL_AREA( #279 );
#196 = ORIENTED_EDGE( '', *, *, #280, .T. );
#197 = ORIENTED_EDGE( '', *, *, #281, .T. );
#198 = ORIENTED_EDGE( '', *, *, #282, .T. );
#199 = ORIENTED_EDGE( '', *, *, #283, .F. );
#200 = CARTESIAN_POINT( '', ( 22.0000000000000, 0.000000000000000, 0.000000000000000 ) );
#201 = DIRECTION( '', ( -1.00000000000000, -0.000000000000000, 0.000000000000000 ) );
#202 = DIRECTION( '', ( -0.000000000000000, 0.000000000000000, -1.00000000000000 ) );
#203 = SURFACE_STYLE_FILL_AREA( #284 );
#204 = ORIENTED_EDGE( '', *, *, #285, .T. );
#205 = ORIENTED_EDGE( '', *, *, #286, .F. );
#206 = CARTESIAN_POINT( '', ( 22.0000000000000, 0.000000000000000, 0.000000000000000 ) );
#207 = DIRECTION( '', ( -1.00000000000000, -0.000000000000000, 0.000000000000000 ) );
#208 = DIRECTION( '', ( -0.000000000000000, 0.000000000000000, -1.00000000000000 ) );
#209 = SURFACE_STYLE_FILL_AREA( #287 );
#210 = ORIENTED_EDGE( '', *, *, #288, .T. );
#211 = ORIENTED_EDGE( '', *, *, #289, .T. );
#212 = CARTESIAN_POINT( '', ( -24.0000000000000, 0.000000000000000, 46.0000000000000 ) );
#213 = DIRECTION( '', ( 0.000000000000000, 0.000000000000000, 1.00000000000000 ) );
#214 = DIRECTION( '', ( 1.00000000000000, 0.000000000000000, -0.000000000000000 ) );
#215 = SURFACE_STYLE_FILL_AREA( #290 );
#216 = ORIENTED_EDGE( '', *, *, #291, .T. );
#217 = ORIENTED_EDGE( '', *, *, #292, .F. );
#218 = CARTESIAN_POINT( '', ( -70.0000000000000, 0.000000000000000, 0.000000000000000 ) );
#219 = DIRECTION( '', ( 1.00000000000000, 0.000000000000000, 0.000000000000000 ) );
#220 = DIRECTION( '', ( 0.000000000000000, 0.000000000000000, -1.00000000000000 ) );
#221 = SURFACE_STYLE_FILL_AREA( #293 );
#222 = ORIENTED_EDGE( '', *, *, #294, .T. );
#223 = ORIENTED_EDGE( '', *, *, #291, .F. );
#224 = CARTESIAN_POINT( '', ( 22.0000000000000, 0.000000000000000, 0.000000000000000 ) );
#225 = DIRECTION( '', ( -1.00000000000000, -0.000000000000000, 0.000000000000000 ) );
#226 = DIRECTION( '', ( -0.000000000000000, 0.000000000000000, -1.00000000000000 ) );
#227 = SURFACE_STYLE_FILL_AREA( #295 );
#228 = ORIENTED_EDGE( '', *, *, #283, .T. );
#229 = ORIENTED_EDGE( '', *, *, #294, .F. );
#230 = CARTESIAN_POINT( '', ( -48.0000000000000, 0.000000000000000, 20.0000000000000 ) );
#231 = DIRECTION( '', ( -1.00000000000000, 0.000000000000000, 0.000000000000000 ) );
#232 = DIRECTION( '', ( 0.000000000000000, 0.000000000000000, 1.00000000000000 ) );
#233 = SURFACE_STYLE_FILL_AREA( #296 );
#234 = ORIENTED_EDGE( '', *, *, #281, .F. );
#235 = ORIENTED_EDGE( '', *, *, #282, .F. );
#236 = ORIENTED_EDGE( '', *, *, #297, .F. );
#237 = CARTESIAN_POINT( '', ( -24.0000000000000, 0.000000000000000, 0.000000000000000 ) );
#238 = DIRECTION( '', ( 0.000000000000000, -0.000000000000000, 1.00000000000000 ) );
#239 = DIRECTION( '', ( -1.00000000000000, 0.000000000000000, 0.000000000000000 ) );
#240 = SURFACE_STYLE_FILL_AREA( #298 );
#241 = ORIENTED_EDGE( '', *, *, #292, .T. );
#242 = ORIENTED_EDGE( '', *, *, #299, .F. );
#243 = ORIENTED_EDGE( '', *, *, #300, .F. );
#244 = ORIENTED_EDGE( '', *, *, #301, .F. );
#245 = CARTESIAN_POINT( '', ( 22.0000000000000, 0.000000000000000, 0.000000000000000 ) );
#246 = DIRECTION( '', ( 1.00000000000000, -0.000000000000000, -0.000000000000000 ) );
#247 = DIRECTION( '', ( 0.000000000000000, 0.000000000000000, 1.00000000000000 ) );
#248 = SURFACE_STYLE_FILL_AREA( #302 );
#249 = ORIENTED_EDGE( '', *, *, #289, .F. );
#250 = ORIENTED_EDGE( '', *, *, #301, .T. );
#251 = ORIENTED_EDGE( '', *, *, #300, .T. );
#252 = CARTESIAN_POINT( '', ( -24.0000000000000, 0.000000000000000, 46.0000000000000 ) );
#253 = DIRECTION( '', ( 0.000000000000000, -0.000000000000000, 1.00000000000000 ) );
#254 = DIRECTION( '', ( -1.00000000000000, 0.000000000000000, 0.000000000000000 ) );
#255 = SURFACE_STYLE_FILL_AREA( #303 );
#256 = ORIENTED_EDGE( '', *, *, #297, .T. );
#257 = ORIENTED_EDGE( '', *, *, #304, .F. );
#258 = CARTESIAN_POINT( '', ( -4.00000000000000, 0.000000000000000, 24.0000000000000 ) );
#259 = DIRECTION( '', ( 0.000000000000000, 0.000000000000000, 1.00000000000000 ) );
#260 = DIRECTION( '', ( 1.00000000000000, 0.000000000000000, -0.000000000000000 ) );
#261 = SURFACE_STYLE_FILL_AREA( #305 );
#262 = ORIENTED_EDGE( '', *, *, #304, .T. );
#263 = ORIENTED_EDGE( '', *, *, #288, .F. );
#264 = CARTESIAN_POINT( '', ( -24.0000000000000, 0.000000000000000, 0.000000000000000 ) );
#265 = DIRECTION( '', ( 0.000000000000000, -0.000000000000000, 1.00000000000000 ) );
#266 = DIRECTION( '', ( -1.00000000000000, 0.000000000000000, 0.000000000000000 ) );
#267 = SURFACE_STYLE_FILL_AREA( #306 );
#268 = ORIENTED_EDGE( '', *, *, #286, .T. );
#269 = ORIENTED_EDGE( '', *, *, #280, .F. );
#270 = CARTESIAN_POINT( '', ( 0.000000000000000, 0.000000000000000, 17.8333333333333 ) );
#271 = DIRECTION( '', ( 1.00000000000000, 0.000000000000000, -0.000000000000000 ) );
#272 = DIRECTION( '', ( -0.000000000000000, 0.000000000000000, -1.00000000000000 ) );
#273 = SURFACE_STYLE_FILL_AREA( #307 );
#274 = ORIENTED_EDGE( '', *, *, #285, .F. );
#275 = ORIENTED_EDGE( '', *, *, #299, .T. );
#276 = CARTESIAN_POINT( '', ( 22.0000000000000, 0.000000000000000, 0.000000000000000 ) );
#277 = DIRECTION( '', ( 1.00000000000000, 0.000000000000000, 0.000000000000000 ) );
#278 = DIRECTION( '', ( 0.000000000000000, 0.000000000000000, -1.00000000000000 ) );
#279 = FILL_AREA_STYLE( '', ( #308 ) );
#280 = EDGE_CURVE( '', #309, #309, #310, .T. );
#281 = EDGE_CURVE( '', #311, #312, #313, .F. );
#282 = EDGE_CURVE( '', #312, #311, #314, .T. );
#283 = EDGE_CURVE( '', #315, #315, #316, .T. );
#284 = FILL_AREA_STYLE( '', ( #317 ) );
#285 = EDGE_CURVE( '', #318, #318, #319, .T. );
#286 = EDGE_CURVE( '', #320, #320, #321, .T. );
#287 = FILL_AREA_STYLE( '', ( #322 ) );
#288 = EDGE_CURVE( '', #323, #323, #324, .T. );
#289 = EDGE_CURVE( '', #325, #325, #326, .T. );
#290 = FILL_AREA_STYLE( '', ( #327 ) );
#291 = EDGE_CURVE( '', #328, #328, #329, .T. );
#292 = EDGE_CURVE( '', #330, #330, #331, .T. );
#293 = FILL_AREA_STYLE( '', ( #332 ) );
#294 = EDGE_CURVE( '', #333, #333, #334, .T. );
#295 = FILL_AREA_STYLE( '', ( #335 ) );
#296 = FILL_AREA_STYLE( '', ( #336 ) );
#297 = EDGE_CURVE( '', #337, #337, #338, .T. );
#298 = FILL_AREA_STYLE( '', ( #339 ) );
#299 = EDGE_CURVE( '', #340, #340, #341, .T. );
#300 = EDGE_CURVE( '', #342, #343, #344, .F. );
#301 = EDGE_CURVE( '', #343, #342, #345, .T. );
#302 = FILL_AREA_STYLE( '', ( #346 ) );
#303 = FILL_AREA_STYLE( '', ( #347 ) );
#304 = EDGE_CURVE( '', #348, #348, #349, .T. );
#305 = FILL_AREA_STYLE( '', ( #350 ) );
#306 = FILL_AREA_STYLE( '', ( #351 ) );
#307 = FILL_AREA_STYLE( '', ( #352 ) );
#308 = FILL_AREA_STYLE_COLOUR( '', #353 );
#309 = VERTEX_POINT( '', #354 );
#310 = CIRCLE( '', #355, 17.8333333333000 );
#311 = VERTEX_POINT( '', #356 );
#312 = VERTEX_POINT( '', #357 );
#313 = ELLIPSE( '', #358, 25.2201418623000, 17.8333333333000 );
#314 = ELLIPSE( '', #359, 25.2201418623000, 17.8333333333000 );
#315 = VERTEX_POINT( '', #360 );
#316 = CIRCLE( '', #361, 17.8333333333000 );
#317 = FILL_AREA_STYLE_COLOUR( '', #362 );
#318 = VERTEX_POINT( '', #363 );
#319 = CIRCLE( '', #364, 20.0000000000000 );
#320 = VERTEX_POINT( '', #365 );
#321 = CIRCLE( '', #366, 20.0000000000000 );
#322 = FILL_AREA_STYLE_COLOUR( '', #367 );
#323 = VERTEX_POINT( '', #368 );
#324 = CIRCLE( '', #369, 20.0000000000000 );
#325 = VERTEX_POINT( '', #370 );
#326 = CIRCLE( '', #371, 26.5000000000000 );
#327 = FILL_AREA_STYLE_COLOUR( '', #372 );
#328 = VERTEX_POINT( '', #373 );
#329 = CIRCLE( '', #374, 20.0000000000000 );
#330 = VERTEX_POINT( '', #375 );
#331 = CIRCLE( '', #376, 26.5000000000000 );
#332 = FILL_AREA_STYLE_COLOUR( '', #377 );
#333 = VERTEX_POINT( '', #378 );
#334 = CIRCLE( '', #379, 20.0000000000000 );
#335 = FILL_AREA_STYLE_COLOUR( '', #380 );
#336 = FILL_AREA_STYLE_COLOUR( '', #381 );
#337 = VERTEX_POINT( '', #382 );
#338 = CIRCLE( '', #383, 17.8333333333000 );
#339 = FILL_AREA_STYLE_COLOUR( '', #384 );
#340 = VERTEX_POINT( '', #385 );
#341 = CIRCLE( '', #386, 26.5000000000000 );
#342 = VERTEX_POINT( '', #387 );
#343 = VERTEX_POINT( '', #388 );
#344 = ELLIPSE( '', #389, 37.4766594029000, 26.5000000000000 );
#345 = ELLIPSE( '', #390, 37.4766594029000, 26.5000000000000 );
#346 = FILL_AREA_STYLE_COLOUR( '', #391 );
#347 = FILL_AREA_STYLE_COLOUR( '', #392 );
#348 = VERTEX_POINT( '', #393 );
#349 = CIRCLE( '', #394, 20.0000000000000 );
#350 = FILL_AREA_STYLE_COLOUR( '', #395 );
#351 = FILL_AREA_STYLE_COLOUR( '', #396 );
#352 = FILL_AREA_STYLE_COLOUR( '', #397 );
#353 = COLOUR_RGB( '', 0.689999997600000, 0.689999997600000, 0.689999997600000 );
#354 = CARTESIAN_POINT( '', ( 0.000000000000000, 0.000000000000000, -17.8333333333333 ) );
#355 = AXIS2_PLACEMENT_3D( '', #398, #399, #400 );
#356 = CARTESIAN_POINT( '', ( -24.0000000000000, -17.8333333333333, 0.000000000000000 ) );
#357 = CARTESIAN_POINT( '', ( -24.0000000000000, 17.8333333333333, 0.000000000000000 ) );
#358 = AXIS2_PLACEMENT_3D( '', #401, #402, #403 );
#359 = AXIS2_PLACEMENT_3D( '', #404, #405, #406 );
#360 = CARTESIAN_POINT( '', ( -48.0000000000000, 0.000000000000000, -17.8333333333333 ) );
#361 = AXIS2_PLACEMENT_3D( '', #407, #408, #409 );
#362 = COLOUR_RGB( '', 0.689999997600000, 0.689999997600000, 0.689999997600000 );
#363 = CARTESIAN_POINT( '', ( 22.0000000000000, 0.000000000000000, -20.0000000000000 ) );
#364 = AXIS2_PLACEMENT_3D( '', #410, #411, #412 );
#365 = CARTESIAN_POINT( '', ( 0.000000000000000, 0.000000000000000, -20.0000000000000 ) );
#366 = AXIS2_PLACEMENT_3D( '', #413, #414, #415 );
#367 = COLOUR_RGB( '', 0.689999997600000, 0.689999997600000, 0.689999997600000 );
#368 = CARTESIAN_POINT( '', ( -44.0000000000000, 0.000000000000000, 46.0000000000000 ) );
#369 = AXIS2_PLACEMENT_3D( '', #416, #417, #418 );
#370 = CARTESIAN_POINT( '', ( 2.50000000000000, 0.000000000000000, 46.0000000000000 ) );
#371 = AXIS2_PLACEMENT_3D( '', #419, #420, #421 );
#372 = COLOUR_RGB( '', 0.689999997600000, 0.689999997600000, 0.689999997600000 );
#373 = CARTESIAN_POINT( '', ( -70.0000000000000, 0.000000000000000, -20.0000000000000 ) );
#374 = AXIS2_PLACEMENT_3D( '', #422, #423, #424 );
#375 = CARTESIAN_POINT( '', ( -70.0000000000000, 26.5000000000000, 0.000000000000000 ) );
#376 = AXIS2_PLACEMENT_3D( '', #425, #426, #427 );
#377 = COLOUR_RGB( '', 0.689999997600000, 0.689999997600000, 0.689999997600000 );
#378 = CARTESIAN_POINT( '', ( -48.0000000000000, 0.000000000000000, -20.0000000000000 ) );
#379 = AXIS2_PLACEMENT_3D( '', #428, #429, #430 );
#380 = COLOUR_RGB( '', 0.689999997600000, 0.689999997600000, 0.689999997600000 );
#381 = COLOUR_RGB( '', 0.689999997600000, 0.689999997600000, 0.689999997600000 );
#382 = CARTESIAN_POINT( '', ( -41.8333333333333, 0.000000000000000, 24.0000000000000 ) );
#383 = AXIS2_PLACEMENT_3D( '', #431, #432, #433 );
#384 = COLOUR_RGB( '', 0.689999997600000, 0.689999997600000, 0.689999997600000 );
#385 = CARTESIAN_POINT( '', ( 22.0000000000000, 26.5000000000000, 0.000000000000000 ) );
#386 = AXIS2_PLACEMENT_3D( '', #434, #435, #436 );
#387 = CARTESIAN_POINT( '', ( -24.0000000000000, 26.5000000000000, 0.000000000000000 ) );
#388 = CARTESIAN_POINT( '', ( -24.0000000000000, -26.5000000000000, 0.000000000000000 ) );
#389 = AXIS2_PLACEMENT_3D( '', #437, #438, #439 );
#390 = AXIS2_PLACEMENT_3D( '', #440, #441, #442 );
#391 = COLOUR_RGB( '', 0.689999997600000, 0.689999997600000, 0.689999997600000 );
#392 = COLOUR_RGB( '', 0.689999997600000, 0.689999997600000, 0.689999997600000 );
#393 = CARTESIAN_POINT( '', ( -44.0000000000000, 0.000000000000000, 24.0000000000000 ) );
#394 = AXIS2_PLACEMENT_3D( '', #443, #444, #445 );
#395 = COLOUR_RGB( '', 0.689999997600000, 0.689999997600000, 0.689999997600000 );
#396 = COLOUR_RGB( '', 0.689999997600000, 0.689999997600000, 0.689999997600000 );
#397 = COLOUR_RGB( '', 0.689999997600000, 0.689999997600000, 0.689999997600000 );
#398 = CARTESIAN_POINT( '', ( 0.000000000000000, 0.000000000000000, 0.000000000000000 ) );
#399 = DIRECTION( '', ( 1.00000000000000, 0.000000000000000, -0.000000000000000 ) );
#400 = DIRECTION( '', ( -0.000000000000000, 0.000000000000000, -1.00000000000000 ) );
#401 = CARTESIAN_POINT( '', ( -24.0000000000000, 0.000000000000000, 0.000000000000000 ) );
#402 = DIRECTION( '', ( 0.707106781186548, 0.000000000000000, -0.707106781186548 ) );
#403 = DIRECTION( '', ( 0.707106781186548, 0.000000000000000, 0.707106781186548 ) );
#404 = CARTESIAN_POINT( '', ( -24.0000000000000, 0.000000000000000, 0.000000000000000 ) );
#405 = DIRECTION( '', ( 0.707106781186548, 0.000000000000000, 0.707106781186548 ) );
#406 = DIRECTION( '', ( 0.707106781186548, -0.000000000000000, -0.707106781186548 ) );
#407 = CARTESIAN_POINT( '', ( -48.0000000000000, 0.000000000000000, 0.000000000000000 ) );
#408 = DIRECTION( '', ( 1.00000000000000, 0.000000000000000, -0.000000000000000 ) );
#409 = DIRECTION( '', ( -0.000000000000000, 0.000000000000000, -1.00000000000000 ) );
#410 = CARTESIAN_POINT( '', ( 22.0000000000000, 0.000000000000000, 0.000000000000000 ) );
#411 = DIRECTION( '', ( 1.00000000000000, 0.000000000000000, -0.000000000000000 ) );
#412 = DIRECTION( '', ( -0.000000000000000, 0.000000000000000, -1.00000000000000 ) );
#413 = CARTESIAN_POINT( '', ( 0.000000000000000, 0.000000000000000, 0.000000000000000 ) );
#414 = DIRECTION( '', ( 1.00000000000000, 0.000000000000000, -0.000000000000000 ) );
#415 = DIRECTION( '', ( -0.000000000000000, 0.000000000000000, -1.00000000000000 ) );
#416 = CARTESIAN_POINT( '', ( -24.0000000000000, 0.000000000000000, 46.0000000000000 ) );
#417 = DIRECTION( '', ( -0.000000000000000, 0.000000000000000, -1.00000000000000 ) );
#418 = DIRECTION( '', ( -1.00000000000000, 0.000000000000000, 0.000000000000000 ) );
#419 = CARTESIAN_POINT( '', ( -24.0000000000000, 0.000000000000000, 46.0000000000000 ) );
#420 = DIRECTION( '', ( 0.000000000000000, 0.000000000000000, 1.00000000000000 ) );
#421 = DIRECTION( '', ( 1.00000000000000, 0.000000000000000, 0.000000000000000 ) );
#422 = CARTESIAN_POINT( '', ( -70.0000000000000, 0.000000000000000, 0.000000000000000 ) );
#423 = DIRECTION( '', ( 1.00000000000000, 0.000000000000000, -0.000000000000000 ) );
#424 = DIRECTION( '', ( -0.000000000000000, 0.000000000000000, -1.00000000000000 ) );
#425 = CARTESIAN_POINT( '', ( -70.0000000000000, 0.000000000000000, 0.000000000000000 ) );
#426 = DIRECTION( '', ( 1.00000000000000, 0.000000000000000, 0.000000000000000 ) );
#427 = DIRECTION( '', ( 0.000000000000000, 1.00000000000000, 0.000000000000000 ) );
#428 = CARTESIAN_POINT( '', ( -48.0000000000000, 0.000000000000000, 0.000000000000000 ) );
#429 = DIRECTION( '', ( 1.00000000000000, 0.000000000000000, -0.000000000000000 ) );
#430 = DIRECTION( '', ( -0.000000000000000, 0.000000000000000, -1.00000000000000 ) );
#431 = CARTESIAN_POINT( '', ( -24.0000000000000, 0.000000000000000, 24.0000000000000 ) );
#432 = DIRECTION( '', ( -0.000000000000000, 0.000000000000000, -1.00000000000000 ) );
#433 = DIRECTION( '', ( -1.00000000000000, 0.000000000000000, 0.000000000000000 ) );
#434 = CARTESIAN_POINT( '', ( 22.0000000000000, 0.000000000000000, 0.000000000000000 ) );
#435 = DIRECTION( '', ( 1.00000000000000, 0.000000000000000, 0.000000000000000 ) );
#436 = DIRECTION( '', ( 0.000000000000000, 1.00000000000000, 0.000000000000000 ) );
#437 = CARTESIAN_POINT( '', ( -24.0000000000000, 0.000000000000000, 0.000000000000000 ) );
#438 = DIRECTION( '', ( -0.707106781186548, 0.000000000000000, -0.707106781186548 ) );
#439 = DIRECTION( '', ( -0.707106781186547, 0.000000000000000, 0.707106781186547 ) );
#440 = CARTESIAN_POINT( '', ( -24.0000000000000, 0.000000000000000, 0.000000000000000 ) );
#441 = DIRECTION( '', ( -0.707106781186548, 0.000000000000000, 0.707106781186548 ) );
#442 = DIRECTION( '', ( -0.707106781186547, -0.000000000000000, -0.707106781186547 ) );
#443 = CARTESIAN_POINT( '', ( -24.0000000000000, 0.000000000000000, 24.0000000000000 ) );
#444 = DIRECTION( '', ( -0.000000000000000, 0.000000000000000, -1.00000000000000 ) );
#445 = DIRECTION( '', ( -1.00000000000000, 0.000000000000000, 0.000000000000000 ) );
ENDSEC;
END-ISO-10303-21;
