ISO-10303-21;
HEADER;
/* Generated by software containing ST-Developer
 * from STEP Tools, Inc. (www.steptools.com) 
 */

FILE_DESCRIPTION(
/* description */ (''),
/* implementation_level */ '2;1');

FILE_NAME(
/* name */ 
'Q:\\Ric010\\FF7\\FIPlastiCAD\\FIP\\Lavoro\\PVC Fittings\\PVC Fittings
 STEP\\PFV\\PFV212.ipt.stp',
/* time_stamp */ '2013-10-01T14:50:43+02:00',
/* author */ ('bfaro'),
/* organization */ (''),
/* preprocessor_version */ 'ST-DEVELOPER v15.2',
/* originating_system */ 'Autodesk Inventor 2014',
/* authorisation */ '');

FILE_SCHEMA (('AUTOMOTIVE_DESIGN { 1 0 10303 214 3 1 1 }'));
ENDSEC;

DATA;
#10=GEOMETRICALLY_BOUNDED_SURFACE_SHAPE_REPRESENTATION('',(#11),#385);
#11=GEOMETRIC_SET('GEOSET',(#12));
#12=TRIMMED_CURVE($,#34,(#382,PARAMETER_VALUE(0.)),(#383,
PARAMETER_VALUE(1.)),.T.,.PARAMETER.);
#13=SHAPE_REPRESENTATION_RELATIONSHIP('SRR','None',#394,#15);
#14=SHAPE_REPRESENTATION_RELATIONSHIP('SRR','None',#394,#10);
#15=ADVANCED_BREP_SHAPE_REPRESENTATION($,(#232),#385);
#16=LINE($,#345,#35);
#17=LINE($,#347,#36);
#18=LINE($,#349,#37);
#19=LINE($,#351,#38);
#20=LINE($,#353,#39);
#21=LINE($,#354,#40);
#22=LINE($,#358,#41);
#23=LINE($,#359,#42);
#24=LINE($,#360,#43);
#25=LINE($,#363,#44);
#26=LINE($,#364,#45);
#27=LINE($,#367,#46);
#28=LINE($,#368,#47);
#29=LINE($,#371,#48);
#30=LINE($,#372,#49);
#31=LINE($,#375,#50);
#32=LINE($,#376,#51);
#33=LINE($,#378,#52);
#34=LINE($,#381,#53);
#35=VECTOR($,#286,46.1880215351701);
#36=VECTOR($,#287,46.1880215351701);
#37=VECTOR($,#288,46.18802153517);
#38=VECTOR($,#289,46.18802153517);
#39=VECTOR($,#290,46.1880215351701);
#40=VECTOR($,#291,46.18802153517);
#41=VECTOR($,#294,46.1880215351701);
#42=VECTOR($,#295,12.8);
#43=VECTOR($,#296,12.8);
#44=VECTOR($,#299,46.18802153517);
#45=VECTOR($,#300,12.8);
#46=VECTOR($,#303,46.18802153517);
#47=VECTOR($,#304,12.8);
#48=VECTOR($,#307,46.1880215351701);
#49=VECTOR($,#308,12.8);
#50=VECTOR($,#311,46.18802153517);
#51=VECTOR($,#312,12.8);
#52=VECTOR($,#315,46.1880215351701);
#53=VECTOR($,#320,30.2);
#54=SPHERICAL_SURFACE($,#244,130.524395161291);
#55=PLANE($,#243);
#56=PLANE($,#246);
#57=PLANE($,#247);
#58=PLANE($,#248);
#59=PLANE($,#249);
#60=PLANE($,#250);
#61=PLANE($,#251);
#62=PLANE($,#252);
#63=PLANE($,#253);
#64=PLANE($,#254);
#65=PLANE($,#255);
#66=FACE_BOUND($,#89,.T.);
#67=FACE_BOUND($,#91,.T.);
#68=FACE_BOUND($,#93,.T.);
#69=FACE_BOUND($,#95,.T.);
#70=FACE_BOUND($,#98,.T.);
#71=FACE_BOUND($,#100,.T.);
#72=FACE_BOUND($,#108,.T.);
#73=FACE_OUTER_BOUND($,#88,.T.);
#74=FACE_OUTER_BOUND($,#90,.T.);
#75=FACE_OUTER_BOUND($,#92,.T.);
#76=FACE_OUTER_BOUND($,#94,.T.);
#77=FACE_OUTER_BOUND($,#96,.T.);
#78=FACE_OUTER_BOUND($,#97,.T.);
#79=FACE_OUTER_BOUND($,#99,.T.);
#80=FACE_OUTER_BOUND($,#101,.T.);
#81=FACE_OUTER_BOUND($,#102,.T.);
#82=FACE_OUTER_BOUND($,#103,.T.);
#83=FACE_OUTER_BOUND($,#104,.T.);
#84=FACE_OUTER_BOUND($,#105,.T.);
#85=FACE_OUTER_BOUND($,#106,.T.);
#86=FACE_OUTER_BOUND($,#107,.T.);
#87=FACE_OUTER_BOUND($,#109,.T.);
#88=EDGE_LOOP($,(#161));
#89=EDGE_LOOP($,(#162));
#90=EDGE_LOOP($,(#163));
#91=EDGE_LOOP($,(#164));
#92=EDGE_LOOP($,(#165));
#93=EDGE_LOOP($,(#166));
#94=EDGE_LOOP($,(#167));
#95=EDGE_LOOP($,(#168));
#96=EDGE_LOOP($,(#169));
#97=EDGE_LOOP($,(#170));
#98=EDGE_LOOP($,(#171));
#99=EDGE_LOOP($,(#172,#173,#174,#175,#176,#177));
#100=EDGE_LOOP($,(#178));
#101=EDGE_LOOP($,(#179,#180,#181,#182));
#102=EDGE_LOOP($,(#183,#184,#185,#186));
#103=EDGE_LOOP($,(#187,#188,#189,#190));
#104=EDGE_LOOP($,(#191,#192,#193,#194));
#105=EDGE_LOOP($,(#195,#196,#197,#198));
#106=EDGE_LOOP($,(#199,#200,#201,#202));
#107=EDGE_LOOP($,(#203,#204,#205,#206,#207,#208));
#108=EDGE_LOOP($,(#209));
#109=EDGE_LOOP($,(#210));
#110=CIRCLE($,#235,37.65);
#111=CIRCLE($,#236,37.65);
#112=CIRCLE($,#238,39.5);
#113=CIRCLE($,#239,39.5);
#114=CIRCLE($,#241,29.75);
#115=CIRCLE($,#242,29.75);
#116=CIRCLE($,#245,39.5000000000003);
#117=VERTEX_POINT($,#323);
#118=VERTEX_POINT($,#325);
#119=VERTEX_POINT($,#328);
#120=VERTEX_POINT($,#330);
#121=VERTEX_POINT($,#333);
#122=VERTEX_POINT($,#335);
#123=VERTEX_POINT($,#339);
#124=VERTEX_POINT($,#343);
#125=VERTEX_POINT($,#344);
#126=VERTEX_POINT($,#346);
#127=VERTEX_POINT($,#348);
#128=VERTEX_POINT($,#350);
#129=VERTEX_POINT($,#352);
#130=VERTEX_POINT($,#356);
#131=VERTEX_POINT($,#357);
#132=VERTEX_POINT($,#362);
#133=VERTEX_POINT($,#366);
#134=VERTEX_POINT($,#370);
#135=VERTEX_POINT($,#374);
#136=EDGE_CURVE($,#117,#117,#110,.T.);
#137=EDGE_CURVE($,#118,#118,#111,.T.);
#138=EDGE_CURVE($,#119,#119,#112,.T.);
#139=EDGE_CURVE($,#120,#120,#113,.T.);
#140=EDGE_CURVE($,#121,#121,#114,.T.);
#141=EDGE_CURVE($,#122,#122,#115,.T.);
#142=EDGE_CURVE($,#123,#123,#116,.T.);
#143=EDGE_CURVE($,#124,#125,#16,.T.);
#144=EDGE_CURVE($,#126,#124,#17,.T.);
#145=EDGE_CURVE($,#127,#126,#18,.T.);
#146=EDGE_CURVE($,#128,#127,#19,.T.);
#147=EDGE_CURVE($,#129,#128,#20,.T.);
#148=EDGE_CURVE($,#125,#129,#21,.T.);
#149=EDGE_CURVE($,#130,#131,#22,.T.);
#150=EDGE_CURVE($,#126,#131,#23,.T.);
#151=EDGE_CURVE($,#124,#130,#24,.T.);
#152=EDGE_CURVE($,#131,#132,#25,.T.);
#153=EDGE_CURVE($,#127,#132,#26,.T.);
#154=EDGE_CURVE($,#132,#133,#27,.T.);
#155=EDGE_CURVE($,#128,#133,#28,.T.);
#156=EDGE_CURVE($,#133,#134,#29,.T.);
#157=EDGE_CURVE($,#129,#134,#30,.T.);
#158=EDGE_CURVE($,#134,#135,#31,.T.);
#159=EDGE_CURVE($,#125,#135,#32,.T.);
#160=EDGE_CURVE($,#135,#130,#33,.T.);
#161=ORIENTED_EDGE($,*,*,#136,.T.);
#162=ORIENTED_EDGE($,*,*,#137,.F.);
#163=ORIENTED_EDGE($,*,*,#138,.F.);
#164=ORIENTED_EDGE($,*,*,#139,.F.);
#165=ORIENTED_EDGE($,*,*,#140,.F.);
#166=ORIENTED_EDGE($,*,*,#141,.T.);
#167=ORIENTED_EDGE($,*,*,#137,.T.);
#168=ORIENTED_EDGE($,*,*,#141,.F.);
#169=ORIENTED_EDGE($,*,*,#142,.F.);
#170=ORIENTED_EDGE($,*,*,#139,.T.);
#171=ORIENTED_EDGE($,*,*,#136,.F.);
#172=ORIENTED_EDGE($,*,*,#143,.F.);
#173=ORIENTED_EDGE($,*,*,#144,.F.);
#174=ORIENTED_EDGE($,*,*,#145,.F.);
#175=ORIENTED_EDGE($,*,*,#146,.F.);
#176=ORIENTED_EDGE($,*,*,#147,.F.);
#177=ORIENTED_EDGE($,*,*,#148,.F.);
#178=ORIENTED_EDGE($,*,*,#138,.T.);
#179=ORIENTED_EDGE($,*,*,#149,.T.);
#180=ORIENTED_EDGE($,*,*,#150,.F.);
#181=ORIENTED_EDGE($,*,*,#144,.T.);
#182=ORIENTED_EDGE($,*,*,#151,.T.);
#183=ORIENTED_EDGE($,*,*,#152,.T.);
#184=ORIENTED_EDGE($,*,*,#153,.F.);
#185=ORIENTED_EDGE($,*,*,#145,.T.);
#186=ORIENTED_EDGE($,*,*,#150,.T.);
#187=ORIENTED_EDGE($,*,*,#154,.T.);
#188=ORIENTED_EDGE($,*,*,#155,.F.);
#189=ORIENTED_EDGE($,*,*,#146,.T.);
#190=ORIENTED_EDGE($,*,*,#153,.T.);
#191=ORIENTED_EDGE($,*,*,#156,.T.);
#192=ORIENTED_EDGE($,*,*,#157,.F.);
#193=ORIENTED_EDGE($,*,*,#147,.T.);
#194=ORIENTED_EDGE($,*,*,#155,.T.);
#195=ORIENTED_EDGE($,*,*,#158,.T.);
#196=ORIENTED_EDGE($,*,*,#159,.F.);
#197=ORIENTED_EDGE($,*,*,#148,.T.);
#198=ORIENTED_EDGE($,*,*,#157,.T.);
#199=ORIENTED_EDGE($,*,*,#160,.T.);
#200=ORIENTED_EDGE($,*,*,#151,.F.);
#201=ORIENTED_EDGE($,*,*,#143,.T.);
#202=ORIENTED_EDGE($,*,*,#159,.T.);
#203=ORIENTED_EDGE($,*,*,#149,.F.);
#204=ORIENTED_EDGE($,*,*,#160,.F.);
#205=ORIENTED_EDGE($,*,*,#158,.F.);
#206=ORIENTED_EDGE($,*,*,#156,.F.);
#207=ORIENTED_EDGE($,*,*,#154,.F.);
#208=ORIENTED_EDGE($,*,*,#152,.F.);
#209=ORIENTED_EDGE($,*,*,#142,.T.);
#210=ORIENTED_EDGE($,*,*,#140,.T.);
#211=CYLINDRICAL_SURFACE($,#234,37.65);
#212=CYLINDRICAL_SURFACE($,#237,39.5);
#213=CYLINDRICAL_SURFACE($,#240,29.75);
#214=STYLED_ITEM($,(#403),#216);
#215=STYLED_ITEM($,(#402),#232);
#216=ADVANCED_FACE($,(#73,#66),#211,.T.);
#217=ADVANCED_FACE($,(#74,#67),#212,.T.);
#218=ADVANCED_FACE($,(#75,#68),#213,.F.);
#219=ADVANCED_FACE($,(#76,#69),#55,.T.);
#220=ADVANCED_FACE($,(#77),#54,.T.);
#221=ADVANCED_FACE($,(#78,#70),#56,.T.);
#222=ADVANCED_FACE($,(#79,#71),#57,.F.);
#223=ADVANCED_FACE($,(#80),#58,.T.);
#224=ADVANCED_FACE($,(#81),#59,.T.);
#225=ADVANCED_FACE($,(#82),#60,.T.);
#226=ADVANCED_FACE($,(#83),#61,.T.);
#227=ADVANCED_FACE($,(#84),#62,.T.);
#228=ADVANCED_FACE($,(#85),#63,.T.);
#229=ADVANCED_FACE($,(#86,#72),#64,.T.);
#230=ADVANCED_FACE($,(#87),#65,.F.);
#231=CLOSED_SHELL($,(#216,#217,#218,#219,#220,#221,#222,#223,#224,#225,
#226,#227,#228,#229,#230));
#232=MANIFOLD_SOLID_BREP('E36',#231);
#233=AXIS2_PLACEMENT_3D('placement',#321,#256,#257);
#234=AXIS2_PLACEMENT_3D($,#322,#258,#259);
#235=AXIS2_PLACEMENT_3D($,#324,#260,#261);
#236=AXIS2_PLACEMENT_3D($,#326,#262,#263);
#237=AXIS2_PLACEMENT_3D($,#327,#264,#265);
#238=AXIS2_PLACEMENT_3D($,#329,#266,#267);
#239=AXIS2_PLACEMENT_3D($,#331,#268,#269);
#240=AXIS2_PLACEMENT_3D($,#332,#270,#271);
#241=AXIS2_PLACEMENT_3D($,#334,#272,#273);
#242=AXIS2_PLACEMENT_3D($,#336,#274,#275);
#243=AXIS2_PLACEMENT_3D($,#337,#276,#277);
#244=AXIS2_PLACEMENT_3D($,#338,#278,#279);
#245=AXIS2_PLACEMENT_3D($,#340,#280,#281);
#246=AXIS2_PLACEMENT_3D($,#341,#282,#283);
#247=AXIS2_PLACEMENT_3D($,#342,#284,#285);
#248=AXIS2_PLACEMENT_3D($,#355,#292,#293);
#249=AXIS2_PLACEMENT_3D($,#361,#297,#298);
#250=AXIS2_PLACEMENT_3D($,#365,#301,#302);
#251=AXIS2_PLACEMENT_3D($,#369,#305,#306);
#252=AXIS2_PLACEMENT_3D($,#373,#309,#310);
#253=AXIS2_PLACEMENT_3D($,#377,#313,#314);
#254=AXIS2_PLACEMENT_3D($,#379,#316,#317);
#255=AXIS2_PLACEMENT_3D($,#380,#318,#319);
#256=DIRECTION('axis',(0.,0.,1.));
#257=DIRECTION('refdir',(1.,0.,0.));
#258=DIRECTION('center_axis',(-1.,1.83691E-016,0.));
#259=DIRECTION('ref_axis',(-1.83691E-016,-1.,0.));
#260=DIRECTION('center_axis',(-1.,0.,0.));
#261=DIRECTION('ref_axis',(0.,1.,0.));
#262=DIRECTION('center_axis',(-1.,0.,0.));
#263=DIRECTION('ref_axis',(0.,-1.,0.));
#264=DIRECTION('center_axis',(-1.,1.224606E-016,0.));
#265=DIRECTION('ref_axis',(1.224606E-016,1.,0.));
#266=DIRECTION('center_axis',(1.,0.,0.));
#267=DIRECTION('ref_axis',(0.,1.,0.));
#268=DIRECTION('center_axis',(-1.,0.,0.));
#269=DIRECTION('ref_axis',(0.,1.,0.));
#270=DIRECTION('center_axis',(-1.,1.83691E-016,0.));
#271=DIRECTION('ref_axis',(-1.83691E-016,-1.,0.));
#272=DIRECTION('center_axis',(-1.,0.,0.));
#273=DIRECTION('ref_axis',(0.,-1.,0.));
#274=DIRECTION('center_axis',(-1.,0.,0.));
#275=DIRECTION('ref_axis',(0.,-1.,0.));
#276=DIRECTION('center_axis',(-1.,0.,0.));
#277=DIRECTION('ref_axis',(0.,0.,-1.));
#278=DIRECTION('center_axis',(0.,-6.12323399573677E-017,1.));
#279=DIRECTION('ref_axis',(0.,-1.,0.));
#280=DIRECTION('center_axis',(-1.,0.,0.));
#281=DIRECTION('ref_axis',(0.,0.,1.));
#282=DIRECTION('center_axis',(-1.,0.,0.));
#283=DIRECTION('ref_axis',(0.,0.,1.));
#284=DIRECTION('center_axis',(1.,0.,0.));
#285=DIRECTION('ref_axis',(0.,0.,-1.));
#286=DIRECTION($,(0.,-0.5,-0.866025403784439));
#287=DIRECTION($,(0.,-1.,0.));
#288=DIRECTION($,(0.,-0.499999999999999,0.866025403784439));
#289=DIRECTION($,(0.,0.500000000000001,0.866025403784438));
#290=DIRECTION($,(0.,1.,0.));
#291=DIRECTION($,(0.,0.5,-0.866025403784439));
#292=DIRECTION('center_axis',(0.,0.,1.));
#293=DIRECTION('ref_axis',(1.,0.,0.));
#294=DIRECTION($,(0.,1.,0.));
#295=DIRECTION($,(1.,0.,0.));
#296=DIRECTION($,(1.,0.,0.));
#297=DIRECTION('center_axis',(0.,0.866025403784439,0.499999999999999));
#298=DIRECTION('ref_axis',(0.,-0.499999999999999,0.866025403784439));
#299=DIRECTION($,(0.,0.499999999999999,-0.866025403784439));
#300=DIRECTION($,(1.,0.,0.));
#301=DIRECTION('center_axis',(0.,0.866025403784438,-0.500000000000001));
#302=DIRECTION('ref_axis',(-1.,0.,0.));
#303=DIRECTION($,(0.,-0.500000000000001,-0.866025403784438));
#304=DIRECTION($,(1.,0.,0.));
#305=DIRECTION('center_axis',(0.,0.,-1.));
#306=DIRECTION('ref_axis',(-1.,0.,0.));
#307=DIRECTION($,(0.,-1.,0.));
#308=DIRECTION($,(1.,0.,0.));
#309=DIRECTION('center_axis',(0.,-0.866025403784439,-0.5));
#310=DIRECTION('ref_axis',(0.,0.499999999999999,-0.866025403784439));
#311=DIRECTION($,(0.,-0.5,0.866025403784439));
#312=DIRECTION($,(1.,0.,0.));
#313=DIRECTION('center_axis',(0.,-0.866025403784439,0.5));
#314=DIRECTION('ref_axis',(1.,0.,0.));
#315=DIRECTION($,(0.,0.5,0.866025403784439));
#316=DIRECTION('center_axis',(1.,0.,0.));
#317=DIRECTION('ref_axis',(0.,0.,-1.));
#318=DIRECTION('center_axis',(1.,0.,0.));
#319=DIRECTION('ref_axis',(0.,0.,-1.));
#320=DIRECTION($,(1.,0.,0.));
#321=CARTESIAN_POINT('',(0.,0.,0.));
#322=CARTESIAN_POINT('Origin',(21.0583403649717,0.,0.));
#323=CARTESIAN_POINT('',(30.2,37.65,0.));
#324=CARTESIAN_POINT('Origin',(30.2,-3.698311E-015,0.));
#325=CARTESIAN_POINT('',(7.105427E-015,37.65,-4.610643E-015));
#326=CARTESIAN_POINT('Origin',(0.,0.,0.));
#327=CARTESIAN_POINT('Origin',(36.2447358467047,-4.438553E-015,0.));
#328=CARTESIAN_POINT('',(42.0796551434353,-39.5,-4.837195E-015));
#329=CARTESIAN_POINT('Origin',(42.0796551434353,-5.153101E-015,0.));
#330=CARTESIAN_POINT('',(30.2,-39.5,4.837195E-015));
#331=CARTESIAN_POINT('Origin',(30.2,-3.698311E-015,0.));
#332=CARTESIAN_POINT('Origin',(22.7183854361668,0.,0.));
#333=CARTESIAN_POINT('',(42.0796551434354,29.75,-3.643204E-015));
#334=CARTESIAN_POINT('Origin',(42.0796551434353,-3.55649E-015,0.));
#335=CARTESIAN_POINT('',(7.105427E-015,29.75,-3.643204E-015));
#336=CARTESIAN_POINT('Origin',(0.,0.,0.));
#337=CARTESIAN_POINT('Origin',(0.,-33.7,0.));
#338=CARTESIAN_POINT('Origin',(-69.5243951612903,-1.98952E-013,0.));
#339=CARTESIAN_POINT('',(54.8796551434354,-39.5,-4.837195E-015));
#340=CARTESIAN_POINT('Origin',(54.8796551434354,-1.98952E-013,0.));
#341=CARTESIAN_POINT('Origin',(30.2,38.575,0.));
#342=CARTESIAN_POINT('Origin',(42.0796551434353,-1.421085E-014,9.769963E-015));
#343=CARTESIAN_POINT('',(42.0796551434353,-23.094010767585,40.));
#344=CARTESIAN_POINT('',(42.0796551434353,-46.1880215351701,2.575717E-014));
#345=CARTESIAN_POINT($,(42.0796551434353,-23.094010767585,40.));
#346=CARTESIAN_POINT('',(42.0796551434353,23.0940107675851,40.));
#347=CARTESIAN_POINT($,(42.0796551434353,23.0940107675851,40.));
#348=CARTESIAN_POINT('',(42.0796551434353,46.18802153517,-3.197442E-014));
#349=CARTESIAN_POINT($,(42.0796551434353,46.18802153517,-3.197442E-014));
#350=CARTESIAN_POINT('',(42.0796551434353,23.094010767585,-40.));
#351=CARTESIAN_POINT($,(42.0796551434353,23.094010767585,-40.));
#352=CARTESIAN_POINT('',(42.0796551434353,-23.0940107675851,-40.));
#353=CARTESIAN_POINT($,(42.0796551434353,-23.0940107675851,-40.));
#354=CARTESIAN_POINT($,(42.0796551434353,-46.1880215351701,2.575717E-014));
#355=CARTESIAN_POINT('Origin',(42.0796551434353,-23.094010767585,40.));
#356=CARTESIAN_POINT('',(54.8796551434354,-23.094010767585,40.));
#357=CARTESIAN_POINT('',(54.8796551434354,23.0940107675851,40.));
#358=CARTESIAN_POINT($,(54.8796551434354,-23.094010767585,40.));
#359=CARTESIAN_POINT($,(42.0796551434353,23.0940107675851,40.));
#360=CARTESIAN_POINT($,(42.0796551434353,-23.094010767585,40.));
#361=CARTESIAN_POINT('Origin',(42.0796551434353,23.0940107675851,40.));
#362=CARTESIAN_POINT('',(54.8796551434354,46.18802153517,-3.197442E-014));
#363=CARTESIAN_POINT($,(54.8796551434354,23.0940107675851,40.));
#364=CARTESIAN_POINT($,(42.0796551434353,46.18802153517,-3.197442E-014));
#365=CARTESIAN_POINT('Origin',(42.0796551434353,46.18802153517,-3.197442E-014));
#366=CARTESIAN_POINT('',(54.8796551434354,23.094010767585,-40.));
#367=CARTESIAN_POINT($,(54.8796551434354,46.18802153517,-3.197442E-014));
#368=CARTESIAN_POINT($,(42.0796551434353,23.094010767585,-40.));
#369=CARTESIAN_POINT('Origin',(42.0796551434353,23.094010767585,-40.));
#370=CARTESIAN_POINT('',(54.8796551434354,-23.0940107675851,-40.));
#371=CARTESIAN_POINT($,(54.8796551434354,23.094010767585,-40.));
#372=CARTESIAN_POINT($,(42.0796551434353,-23.0940107675851,-40.));
#373=CARTESIAN_POINT('Origin',(42.0796551434353,-23.0940107675851,-40.));
#374=CARTESIAN_POINT('',(54.8796551434354,-46.1880215351701,2.575717E-014));
#375=CARTESIAN_POINT($,(54.8796551434354,-23.0940107675851,-40.));
#376=CARTESIAN_POINT($,(42.0796551434353,-46.1880215351701,2.575717E-014));
#377=CARTESIAN_POINT('Origin',(42.0796551434353,-46.1880215351701,2.575717E-014));
#378=CARTESIAN_POINT($,(54.8796551434354,-46.1880215351701,2.575717E-014));
#379=CARTESIAN_POINT('Origin',(54.8796551434354,-1.421085E-014,9.769963E-015));
#380=CARTESIAN_POINT('Origin',(42.0796551434353,-1.421085E-014,9.769963E-015));
#381=CARTESIAN_POINT($,(6.915964E-015,37.65,4.610643E-015));
#382=CARTESIAN_POINT('',(6.915964E-015,37.65,4.610643E-015));
#383=CARTESIAN_POINT('',(30.2,37.65,4.610643E-015));
#384=UNCERTAINTY_MEASURE_WITH_UNIT(LENGTH_MEASURE(0.01),#386,
'DISTANCE_ACCURACY_VALUE',
'Maximum model space distance between geometric entities at asserted c
onnectivities');
#385=(
GEOMETRIC_REPRESENTATION_CONTEXT(3)
GLOBAL_UNCERTAINTY_ASSIGNED_CONTEXT((#384))
GLOBAL_UNIT_ASSIGNED_CONTEXT((#386,#389,#387))
REPRESENTATION_CONTEXT('','3D')
);
#386=(
LENGTH_UNIT()
NAMED_UNIT(*)
SI_UNIT(.MILLI.,.METRE.)
);
#387=(
NAMED_UNIT(*)
SI_UNIT($,.STERADIAN.)
SOLID_ANGLE_UNIT()
);
#388=DIMENSIONAL_EXPONENTS(0.,0.,0.,0.,0.,0.,0.);
#389=(
CONVERSION_BASED_UNIT('degree',#391)
NAMED_UNIT(#388)
PLANE_ANGLE_UNIT()
);
#390=(
NAMED_UNIT(*)
PLANE_ANGLE_UNIT()
SI_UNIT($,.RADIAN.)
);
#391=PLANE_ANGLE_MEASURE_WITH_UNIT(PLANE_ANGLE_MEASURE(0.01745329252),#390);
#392=SHAPE_DEFINITION_REPRESENTATION(#393,#394);
#393=PRODUCT_DEFINITION_SHAPE('',$,#396);
#394=SHAPE_REPRESENTATION('',(#233),#385);
#395=PRODUCT_DEFINITION_CONTEXT('3D Mechanical Parts',#399,'design');
#396=PRODUCT_DEFINITION('PFV212','PFV212',#397,#395);
#397=PRODUCT_DEFINITION_FORMATION('',$,#401);
#398=APPLICATION_PROTOCOL_DEFINITION('international standard',
'automotive_design',2009,#399);
#399=APPLICATION_CONTEXT(
'Core Data for Automotive Mechanical Design Process');
#400=PRODUCT_CONTEXT('3D Mechanical Parts',#399,'mechanical');
#401=PRODUCT('PFV212','PFV212',$,(#400));
#402=PRESENTATION_STYLE_ASSIGNMENT((#404));
#403=PRESENTATION_STYLE_ASSIGNMENT((#405));
#404=SURFACE_STYLE_USAGE(.BOTH.,#406);
#405=SURFACE_STYLE_USAGE(.BOTH.,#407);
#406=SURFACE_SIDE_STYLE($,(#408));
#407=SURFACE_SIDE_STYLE($,(#409));
#408=SURFACE_STYLE_FILL_AREA(#410);
#409=SURFACE_STYLE_FILL_AREA(#411);
#410=FILL_AREA_STYLE($,(#412));
#411=FILL_AREA_STYLE($,(#413));
#412=FILL_AREA_STYLE_COLOUR($,#414);
#413=FILL_AREA_STYLE_COLOUR($,#415);
#414=COLOUR_RGB('',0.509803921568627,0.509803921568627,0.588235294117647);
#415=COLOUR_RGB('',1.,0.,0.);
ENDSEC;
END-ISO-10303-21;
