ISO-10303-21;
HEADER;
/* Generated by software containing ST-Developer
 * from STEP Tools, Inc. (www.steptools.com) 
 */

FILE_DESCRIPTION(
/* description */ (''),
/* implementation_level */ '2;1');

FILE_NAME(
/* name */ 'C:\\Users\\Gabriele\\Desktop\\catalogo\\EL50\\EL500200.stp',

/* time_stamp */ '2016-10-17T17:03:26+02:00',
/* author */ ('Gabriele'),
/* organization */ (''),
/* preprocessor_version */ 'ST-DEVELOPER v16.5',
/* originating_system */ 'Autodesk Inventor 2017',
/* authorisation */ '');

FILE_SCHEMA (('AUTOMOTIVE_DESIGN { 1 0 10303 214 3 1 1 }'));
ENDSEC;

DATA;
#10=MECHANICAL_DESIGN_GEOMETRIC_PRESENTATION_REPRESENTATION('',(#13),#418);
#11=SHAPE_REPRESENTATION_RELATIONSHIP('SRR','None',#427,#12);
#12=ADVANCED_BREP_SHAPE_REPRESENTATION('',(#14),#417);
#13=STYLED_ITEM('',(#436),#14);
#14=MANIFOLD_SOLID_BREP('Solido1',#189);
#15=PLANE('',#200);
#16=PLANE('',#210);
#17=PLANE('',#218);
#18=PLANE('',#219);
#19=TOROIDAL_SURFACE('',#197,10.5,0.5);
#20=TOROIDAL_SURFACE('',#204,12.75,0.5);
#21=TOROIDAL_SURFACE('',#207,10.5,0.5);
#22=TOROIDAL_SURFACE('',#214,12.75,0.5);
#23=TOROIDAL_SURFACE('',#215,11.,9.5);
#24=FACE_BOUND('',#74,.T.);
#25=FACE_BOUND('',#76,.T.);
#26=FACE_BOUND('',#78,.T.);
#27=FACE_BOUND('',#80,.T.);
#28=FACE_BOUND('',#82,.T.);
#29=FACE_BOUND('',#84,.T.);
#30=FACE_BOUND('',#86,.T.);
#31=FACE_BOUND('',#88,.T.);
#32=FACE_BOUND('',#90,.T.);
#33=FACE_BOUND('',#92,.T.);
#34=FACE_BOUND('',#94,.T.);
#35=FACE_BOUND('',#96,.T.);
#36=FACE_BOUND('',#98,.T.);
#37=CYLINDRICAL_SURFACE('',#195,13.25);
#38=CYLINDRICAL_SURFACE('',#202,10.);
#39=CYLINDRICAL_SURFACE('',#206,13.25);
#40=CYLINDRICAL_SURFACE('',#212,10.);
#41=CIRCLE('',#193,13.25);
#42=CIRCLE('',#194,13.25);
#43=CIRCLE('',#196,13.25);
#44=CIRCLE('',#198,10.);
#45=CIRCLE('',#199,10.5);
#46=CIRCLE('',#201,12.75);
#47=CIRCLE('',#203,10.);
#48=CIRCLE('',#205,13.25);
#49=CIRCLE('',#208,10.);
#50=CIRCLE('',#209,10.5);
#51=CIRCLE('',#211,12.75);
#52=CIRCLE('',#213,10.);
#53=CIRCLE('',#216,9.5);
#54=CIRCLE('',#217,9.5);
#55=(
BOUNDED_SURFACE()
B_SPLINE_SURFACE(2,2,((#349,#350,#351),(#352,#353,#354),(#355,#356,#357),
(#358,#359,#360),(#361,#362,#363),(#364,#365,#366),(#367,#368,#369),(#370,
#371,#372),(#373,#374,#375)),.UNSPECIFIED.,.F.,.F.,.F.)
B_SPLINE_SURFACE_WITH_KNOTS((3,2,2,2,3),(3,3),(-2.50145727783522,-1.25072863891761,
8.88178419700125E-16,1.25072863891761,2.50145727783522),(-5.55111512312581E-15,
1.57079632679494),.UNSPECIFIED.)
GEOMETRIC_REPRESENTATION_ITEM()
RATIONAL_B_SPLINE_SURFACE(((1.,0.707106781186531,1.),(0.81074990336908,
0.573286754518602,0.81074990336908),(1.,0.707106781186531,1.),(0.81074990336908,
0.573286754518602,0.81074990336908),(1.,0.707106781186531,1.),(0.81074990336908,
0.573286754518602,0.81074990336908),(1.,0.707106781186531,1.),(0.81074990336908,
0.573286754518602,0.81074990336908),(1.,0.707106781186531,1.)))
REPRESENTATION_ITEM('')
SURFACE()
);
#56=FACE_OUTER_BOUND('',#71,.T.);
#57=FACE_OUTER_BOUND('',#72,.T.);
#58=FACE_OUTER_BOUND('',#73,.T.);
#59=FACE_OUTER_BOUND('',#75,.T.);
#60=FACE_OUTER_BOUND('',#77,.T.);
#61=FACE_OUTER_BOUND('',#79,.T.);
#62=FACE_OUTER_BOUND('',#81,.T.);
#63=FACE_OUTER_BOUND('',#83,.T.);
#64=FACE_OUTER_BOUND('',#85,.T.);
#65=FACE_OUTER_BOUND('',#87,.T.);
#66=FACE_OUTER_BOUND('',#89,.T.);
#67=FACE_OUTER_BOUND('',#91,.T.);
#68=FACE_OUTER_BOUND('',#93,.T.);
#69=FACE_OUTER_BOUND('',#95,.T.);
#70=FACE_OUTER_BOUND('',#97,.T.);
#71=EDGE_LOOP('',(#137,#138,#139,#140));
#72=EDGE_LOOP('',(#141,#142,#143,#144));
#73=EDGE_LOOP('',(#145));
#74=EDGE_LOOP('',(#146,#147));
#75=EDGE_LOOP('',(#148));
#76=EDGE_LOOP('',(#149));
#77=EDGE_LOOP('',(#150));
#78=EDGE_LOOP('',(#151));
#79=EDGE_LOOP('',(#152));
#80=EDGE_LOOP('',(#153));
#81=EDGE_LOOP('',(#154));
#82=EDGE_LOOP('',(#155));
#83=EDGE_LOOP('',(#156,#157));
#84=EDGE_LOOP('',(#158));
#85=EDGE_LOOP('',(#159));
#86=EDGE_LOOP('',(#160));
#87=EDGE_LOOP('',(#161));
#88=EDGE_LOOP('',(#162));
#89=EDGE_LOOP('',(#163));
#90=EDGE_LOOP('',(#164));
#91=EDGE_LOOP('',(#165));
#92=EDGE_LOOP('',(#166));
#93=EDGE_LOOP('',(#167));
#94=EDGE_LOOP('',(#168));
#95=EDGE_LOOP('',(#169));
#96=EDGE_LOOP('',(#170));
#97=EDGE_LOOP('',(#171));
#98=EDGE_LOOP('',(#172));
#99=ELLIPSE('',#191,19.0951564539283,13.25);
#100=ELLIPSE('',#192,19.0951564539283,13.25);
#101=B_SPLINE_CURVE_WITH_KNOTS('',3,(#313,#314,#315,#316,#317,#318,#319,
#320,#321,#322,#323,#324,#325,#326,#327,#328),.UNSPECIFIED.,.F.,.F.,(4,
3,3,3,3,4),(-0.000290873537762693,0.0120463142576732,0.0238505501998037,
0.0302551838185323,0.0416475922464471,0.0608690847562241),.UNSPECIFIED.);
#102=B_SPLINE_CURVE_WITH_KNOTS('',3,(#332,#333,#334,#335,#336,#337,#338,
#339,#340,#341,#342,#343,#344,#345,#346,#347),.UNSPECIFIED.,.F.,.F.,(4,
3,3,3,3,4),(-0.000290873541814028,0.0120463143218676,0.0238505503377628,
0.0302551839964236,0.0416475924955653,0.0608690851251157),.UNSPECIFIED.);
#103=VERTEX_POINT('',#311);
#104=VERTEX_POINT('',#312);
#105=VERTEX_POINT('',#329);
#106=VERTEX_POINT('',#331);
#107=VERTEX_POINT('',#379);
#108=VERTEX_POINT('',#382);
#109=VERTEX_POINT('',#384);
#110=VERTEX_POINT('',#387);
#111=VERTEX_POINT('',#390);
#112=VERTEX_POINT('',#393);
#113=VERTEX_POINT('',#397);
#114=VERTEX_POINT('',#399);
#115=VERTEX_POINT('',#402);
#116=VERTEX_POINT('',#405);
#117=VERTEX_POINT('',#409);
#118=VERTEX_POINT('',#411);
#119=EDGE_CURVE('',#103,#104,#101,.T.);
#120=EDGE_CURVE('',#103,#105,#99,.T.);
#121=EDGE_CURVE('',#106,#105,#102,.T.);
#122=EDGE_CURVE('',#106,#104,#100,.T.);
#123=EDGE_CURVE('',#105,#103,#41,.T.);
#124=EDGE_CURVE('',#106,#104,#42,.T.);
#125=EDGE_CURVE('',#107,#107,#43,.T.);
#126=EDGE_CURVE('',#108,#108,#44,.T.);
#127=EDGE_CURVE('',#109,#109,#45,.T.);
#128=EDGE_CURVE('',#110,#110,#46,.T.);
#129=EDGE_CURVE('',#111,#111,#47,.T.);
#130=EDGE_CURVE('',#112,#112,#48,.T.);
#131=EDGE_CURVE('',#113,#113,#49,.T.);
#132=EDGE_CURVE('',#114,#114,#50,.T.);
#133=EDGE_CURVE('',#115,#115,#51,.T.);
#134=EDGE_CURVE('',#116,#116,#52,.T.);
#135=EDGE_CURVE('',#117,#117,#53,.T.);
#136=EDGE_CURVE('',#118,#118,#54,.T.);
#137=ORIENTED_EDGE('',*,*,#119,.F.);
#138=ORIENTED_EDGE('',*,*,#120,.T.);
#139=ORIENTED_EDGE('',*,*,#121,.F.);
#140=ORIENTED_EDGE('',*,*,#122,.T.);
#141=ORIENTED_EDGE('',*,*,#121,.T.);
#142=ORIENTED_EDGE('',*,*,#123,.T.);
#143=ORIENTED_EDGE('',*,*,#119,.T.);
#144=ORIENTED_EDGE('',*,*,#124,.F.);
#145=ORIENTED_EDGE('',*,*,#125,.F.);
#146=ORIENTED_EDGE('',*,*,#120,.F.);
#147=ORIENTED_EDGE('',*,*,#123,.F.);
#148=ORIENTED_EDGE('',*,*,#126,.T.);
#149=ORIENTED_EDGE('',*,*,#127,.T.);
#150=ORIENTED_EDGE('',*,*,#128,.F.);
#151=ORIENTED_EDGE('',*,*,#127,.F.);
#152=ORIENTED_EDGE('',*,*,#129,.F.);
#153=ORIENTED_EDGE('',*,*,#126,.F.);
#154=ORIENTED_EDGE('',*,*,#130,.T.);
#155=ORIENTED_EDGE('',*,*,#128,.T.);
#156=ORIENTED_EDGE('',*,*,#122,.F.);
#157=ORIENTED_EDGE('',*,*,#124,.T.);
#158=ORIENTED_EDGE('',*,*,#130,.F.);
#159=ORIENTED_EDGE('',*,*,#131,.T.);
#160=ORIENTED_EDGE('',*,*,#132,.T.);
#161=ORIENTED_EDGE('',*,*,#133,.F.);
#162=ORIENTED_EDGE('',*,*,#132,.F.);
#163=ORIENTED_EDGE('',*,*,#134,.T.);
#164=ORIENTED_EDGE('',*,*,#131,.F.);
#165=ORIENTED_EDGE('',*,*,#133,.T.);
#166=ORIENTED_EDGE('',*,*,#125,.T.);
#167=ORIENTED_EDGE('',*,*,#135,.F.);
#168=ORIENTED_EDGE('',*,*,#136,.F.);
#169=ORIENTED_EDGE('',*,*,#129,.T.);
#170=ORIENTED_EDGE('',*,*,#135,.T.);
#171=ORIENTED_EDGE('',*,*,#134,.F.);
#172=ORIENTED_EDGE('',*,*,#136,.T.);
#173=B_SPLINE_SURFACE_WITH_KNOTS('',3,3,((#281,#282,#283,#284,#285,#286),
(#287,#288,#289,#290,#291,#292),(#293,#294,#295,#296,#297,#298),(#299,#300,
#301,#302,#303,#304),(#305,#306,#307,#308,#309,#310)),.UNSPECIFIED.,.F.,
 .F.,.F.,(4,1,4),(4,1,1,4),(0.,0.5,1.),(-0.646380043784834,-0.0923400062549758,
0.27702001876493,0.646380043784835),.UNSPECIFIED.);
#174=ADVANCED_FACE('',(#56),#173,.T.);
#175=ADVANCED_FACE('',(#57),#55,.F.);
#176=ADVANCED_FACE('',(#58,#24),#37,.T.);
#177=ADVANCED_FACE('',(#59,#25),#19,.T.);
#178=ADVANCED_FACE('',(#60,#26),#15,.T.);
#179=ADVANCED_FACE('',(#61,#27),#38,.F.);
#180=ADVANCED_FACE('',(#62,#28),#20,.T.);
#181=ADVANCED_FACE('',(#63,#29),#39,.T.);
#182=ADVANCED_FACE('',(#64,#30),#21,.T.);
#183=ADVANCED_FACE('',(#65,#31),#16,.F.);
#184=ADVANCED_FACE('',(#66,#32),#40,.F.);
#185=ADVANCED_FACE('',(#67,#33),#22,.T.);
#186=ADVANCED_FACE('',(#68,#34),#23,.F.);
#187=ADVANCED_FACE('',(#69,#35),#17,.T.);
#188=ADVANCED_FACE('',(#70,#36),#18,.F.);
#189=CLOSED_SHELL('',(#174,#175,#176,#177,#178,#179,#180,#181,#182,#183,
#184,#185,#186,#187,#188));
#190=AXIS2_PLACEMENT_3D('placement',#280,#220,#221);
#191=AXIS2_PLACEMENT_3D('',#330,#222,#223);
#192=AXIS2_PLACEMENT_3D('',#348,#224,#225);
#193=AXIS2_PLACEMENT_3D('',#376,#226,#227);
#194=AXIS2_PLACEMENT_3D('',#377,#228,#229);
#195=AXIS2_PLACEMENT_3D('',#378,#230,#231);
#196=AXIS2_PLACEMENT_3D('',#380,#232,#233);
#197=AXIS2_PLACEMENT_3D('',#381,#234,#235);
#198=AXIS2_PLACEMENT_3D('',#383,#236,#237);
#199=AXIS2_PLACEMENT_3D('',#385,#238,#239);
#200=AXIS2_PLACEMENT_3D('',#386,#240,#241);
#201=AXIS2_PLACEMENT_3D('',#388,#242,#243);
#202=AXIS2_PLACEMENT_3D('',#389,#244,#245);
#203=AXIS2_PLACEMENT_3D('',#391,#246,#247);
#204=AXIS2_PLACEMENT_3D('',#392,#248,#249);
#205=AXIS2_PLACEMENT_3D('',#394,#250,#251);
#206=AXIS2_PLACEMENT_3D('',#395,#252,#253);
#207=AXIS2_PLACEMENT_3D('',#396,#254,#255);
#208=AXIS2_PLACEMENT_3D('',#398,#256,#257);
#209=AXIS2_PLACEMENT_3D('',#400,#258,#259);
#210=AXIS2_PLACEMENT_3D('',#401,#260,#261);
#211=AXIS2_PLACEMENT_3D('',#403,#262,#263);
#212=AXIS2_PLACEMENT_3D('',#404,#264,#265);
#213=AXIS2_PLACEMENT_3D('',#406,#266,#267);
#214=AXIS2_PLACEMENT_3D('',#407,#268,#269);
#215=AXIS2_PLACEMENT_3D('',#408,#270,#271);
#216=AXIS2_PLACEMENT_3D('',#410,#272,#273);
#217=AXIS2_PLACEMENT_3D('',#412,#274,#275);
#218=AXIS2_PLACEMENT_3D('',#413,#276,#277);
#219=AXIS2_PLACEMENT_3D('',#414,#278,#279);
#220=DIRECTION('axis',(0.,0.,1.));
#221=DIRECTION('refdir',(1.,0.,0.));
#222=DIRECTION('center_axis',(0.720077891646251,0.693893241040933,0.));
#223=DIRECTION('ref_axis',(0.693893241040933,-0.720077891646251,0.));
#224=DIRECTION('center_axis',(-0.693893241040933,-0.720077891646251,0.));
#225=DIRECTION('ref_axis',(0.720077891646251,-0.693893241040933,0.));
#226=DIRECTION('center_axis',(0.,1.,0.));
#227=DIRECTION('ref_axis',(-1.,0.,0.));
#228=DIRECTION('center_axis',(1.,6.12323399573677E-17,0.));
#229=DIRECTION('ref_axis',(-6.12323399573677E-17,1.,0.));
#230=DIRECTION('center_axis',(0.,1.,0.));
#231=DIRECTION('ref_axis',(-1.,0.,0.));
#232=DIRECTION('center_axis',(0.,-1.,0.));
#233=DIRECTION('ref_axis',(-1.,0.,0.));
#234=DIRECTION('center_axis',(-1.,-6.12323399573677E-17,0.));
#235=DIRECTION('ref_axis',(0.,0.,1.));
#236=DIRECTION('center_axis',(-1.,-6.12323399573677E-17,0.));
#237=DIRECTION('ref_axis',(-6.24500451351651E-17,1.,0.));
#238=DIRECTION('center_axis',(1.,6.12323399573677E-17,0.));
#239=DIRECTION('ref_axis',(-6.12323399573677E-17,1.,0.));
#240=DIRECTION('center_axis',(1.,6.12323399573677E-17,0.));
#241=DIRECTION('ref_axis',(0.,0.,1.));
#242=DIRECTION('center_axis',(-1.,-6.12323399573677E-17,0.));
#243=DIRECTION('ref_axis',(-6.12323399573677E-17,1.,0.));
#244=DIRECTION('center_axis',(1.,2.22044604925031E-16,0.));
#245=DIRECTION('ref_axis',(-2.22044604925031E-16,1.,0.));
#246=DIRECTION('center_axis',(1.,2.22044604925031E-16,0.));
#247=DIRECTION('ref_axis',(-2.22044604925031E-16,1.,0.));
#248=DIRECTION('center_axis',(1.,6.12323399573677E-17,0.));
#249=DIRECTION('ref_axis',(0.,0.,-1.));
#250=DIRECTION('center_axis',(1.,6.12323399573677E-17,0.));
#251=DIRECTION('ref_axis',(-6.28428127146315E-17,1.,0.));
#252=DIRECTION('center_axis',(1.,0.,0.));
#253=DIRECTION('ref_axis',(0.,1.,0.));
#254=DIRECTION('center_axis',(0.,1.,0.));
#255=DIRECTION('ref_axis',(0.,0.,1.));
#256=DIRECTION('center_axis',(0.,1.,0.));
#257=DIRECTION('ref_axis',(-1.,0.,0.));
#258=DIRECTION('center_axis',(0.,-1.,0.));
#259=DIRECTION('ref_axis',(-1.,0.,0.));
#260=DIRECTION('center_axis',(0.,1.,0.));
#261=DIRECTION('ref_axis',(0.,0.,1.));
#262=DIRECTION('center_axis',(0.,1.,0.));
#263=DIRECTION('ref_axis',(-1.,0.,0.));
#264=DIRECTION('center_axis',(0.,1.,0.));
#265=DIRECTION('ref_axis',(-1.,0.,0.));
#266=DIRECTION('center_axis',(0.,1.,0.));
#267=DIRECTION('ref_axis',(-1.,0.,0.));
#268=DIRECTION('center_axis',(0.,1.,0.));
#269=DIRECTION('ref_axis',(0.,0.,1.));
#270=DIRECTION('center_axis',(0.,0.,-1.));
#271=DIRECTION('ref_axis',(-1.,0.,0.));
#272=DIRECTION('center_axis',(-1.,-2.22044604925031E-16,0.));
#273=DIRECTION('ref_axis',(-2.22044604925031E-16,1.,0.));
#274=DIRECTION('center_axis',(0.,1.,0.));
#275=DIRECTION('ref_axis',(-1.,0.,0.));
#276=DIRECTION('center_axis',(1.,2.22044604925031E-16,0.));
#277=DIRECTION('ref_axis',(0.,0.,1.));
#278=DIRECTION('center_axis',(0.,1.,0.));
#279=DIRECTION('ref_axis',(0.,0.,1.));
#280=CARTESIAN_POINT('',(0.,0.,0.));
#281=CARTESIAN_POINT('Ctrl Pts',(10.5770685706504,16.0237967663062,-7.98048372291802));
#282=CARTESIAN_POINT('Ctrl Pts',(12.0509044044344,14.4943444859643,-6.02711056697168));
#283=CARTESIAN_POINT('Ctrl Pts',(13.5768925002213,12.9107719337326,-2.07757363520327));
#284=CARTESIAN_POINT('Ctrl Pts',(13.0359402082502,13.4721375197404,3.70801817430828));
#285=CARTESIAN_POINT('Ctrl Pts',(11.559625793173,15.004161912745,6.67823495228714));
#286=CARTESIAN_POINT('Ctrl Pts',(10.5770685706504,16.0237967663062,7.98048372291804));
#287=CARTESIAN_POINT('Ctrl Pts',(10.6081325737338,16.1094277129041,-7.9393125230134));
#288=CARTESIAN_POINT('Ctrl Pts',(12.0735076045327,14.5992033535125,-5.98095310662453));
#289=CARTESIAN_POINT('Ctrl Pts',(13.5694265099282,13.0494846832854,-2.05179296749793));
#290=CARTESIAN_POINT('Ctrl Pts',(13.0411914675884,13.5974538525594,3.66717077147865));
#291=CARTESIAN_POINT('Ctrl Pts',(11.585049260933,15.1026114733097,6.63373957875417));
#292=CARTESIAN_POINT('Ctrl Pts',(10.6081325737338,16.1094277129041,7.93931252301341));
#293=CARTESIAN_POINT('Ctrl Pts',(10.7195323185765,16.2804676814235,-7.89431349222303));
#294=CARTESIAN_POINT('Ctrl Pts',(12.1917331035664,14.8082668964336,-5.92953875898407));
#295=CARTESIAN_POINT('Ctrl Pts',(13.6748219767105,13.3251780232895,-2.02179448277441));
#296=CARTESIAN_POINT('Ctrl Pts',(13.153089767655,13.846910232345,3.61995293824806));
#297=CARTESIAN_POINT('Ctrl Pts',(11.7009995085698,15.2990004914302,6.58446367006374));
#298=CARTESIAN_POINT('Ctrl Pts',(10.7195323185765,16.2804676814235,7.89431349222305));
#299=CARTESIAN_POINT('Ctrl Pts',(10.8905722870959,16.3918674262662,-7.9393125230134));
#300=CARTESIAN_POINT('Ctrl Pts',(12.4007966464875,14.9264923954673,-5.98095310662453));
#301=CARTESIAN_POINT('Ctrl Pts',(13.9505153167146,13.4305734900718,-2.05179296749793));
#302=CARTESIAN_POINT('Ctrl Pts',(13.4025461474406,13.9588085324116,3.66717077147865));
#303=CARTESIAN_POINT('Ctrl Pts',(11.8973885266903,15.414950739067,6.63373957875416));
#304=CARTESIAN_POINT('Ctrl Pts',(10.8905722870959,16.3918674262662,7.93931252301341));
#305=CARTESIAN_POINT('Ctrl Pts',(10.9762032336938,16.4229314293496,-7.98048372291802));
#306=CARTESIAN_POINT('Ctrl Pts',(12.5056555140357,14.9490955955656,-6.02711056697168));
#307=CARTESIAN_POINT('Ctrl Pts',(14.0892280662674,13.4231074997787,-2.07757363520327));
#308=CARTESIAN_POINT('Ctrl Pts',(13.5278624802596,13.9640597917498,3.70801817430828));
#309=CARTESIAN_POINT('Ctrl Pts',(11.995838087255,15.440374206827,6.67823495228714));
#310=CARTESIAN_POINT('Ctrl Pts',(10.9762032336938,16.4229314293496,7.98048372291803));
#311=CARTESIAN_POINT('',(10.6,16.,7.95000000000001));
#312=CARTESIAN_POINT('',(11.,16.4,7.95000000000001));
#313=CARTESIAN_POINT('Ctrl Pts',(10.5999992983315,16.0000007281466,7.94999974941418));
#314=CARTESIAN_POINT('Ctrl Pts',(10.6065683195473,16.0396400187161,7.94123917038683));
#315=CARTESIAN_POINT('Ctrl Pts',(10.6180385264555,16.0785981641963,7.93399390294387));
#316=CARTESIAN_POINT('Ctrl Pts',(10.6343079473362,16.1159456948218,7.92840845374038));
#317=CARTESIAN_POINT('Ctrl Pts',(10.6498745485667,16.1516798565019,7.92306428930568));
#318=CARTESIAN_POINT('Ctrl Pts',(10.6696671958597,16.185555938139,7.919295834205));
#319=CARTESIAN_POINT('Ctrl Pts',(10.6934652864481,16.2167728338296,7.91729051677033));
#320=CARTESIAN_POINT('Ctrl Pts',(10.7063774352556,16.2337102095812,7.9162024901059));
#321=CARTESIAN_POINT('Ctrl Pts',(10.7203561676521,16.2497106079176,7.91564599771082));
#322=CARTESIAN_POINT('Ctrl Pts',(10.7353229227812,16.2646770772188,7.91564580825106));
#323=CARTESIAN_POINT('Ctrl Pts',(10.7619454272711,16.2912990732849,7.91564547124461));
#324=CARTESIAN_POINT('Ctrl Pts',(10.7916895982179,16.3146584785147,7.91739682590004));
#325=CARTESIAN_POINT('Ctrl Pts',(10.823938085797,16.3343992707238,7.92074192025766));
#326=CARTESIAN_POINT('Ctrl Pts',(10.8783483596538,16.3677063183061,7.92638582835194));
#327=CARTESIAN_POINT('Ctrl Pts',(10.9381950218978,16.3897585045192,7.93634054896539));
#328=CARTESIAN_POINT('Ctrl Pts',(10.9999992718467,16.400000701675,7.94999974942286));
#329=CARTESIAN_POINT('',(10.6,16.,-7.95000000000001));
#330=CARTESIAN_POINT('Origin',(0.,27.,0.));
#331=CARTESIAN_POINT('',(11.,16.4,-7.95000000000001));
#332=CARTESIAN_POINT('Ctrl Pts',(10.9999985748784,16.400001373299,-7.9499993536329));
#333=CARTESIAN_POINT('Ctrl Pts',(10.9603596338895,16.3934320107381,-7.94123914627526));
#334=CARTESIAN_POINT('Ctrl Pts',(10.921401648265,16.3819616533752,-7.9339939011055));
#335=CARTESIAN_POINT('Ctrl Pts',(10.8840542017849,16.3656921520603,-7.9284084633428));
#336=CARTESIAN_POINT('Ctrl Pts',(10.8483201205896,16.350125473859,-7.92306430985082));
#337=CARTESIAN_POINT('Ctrl Pts',(10.8144440515037,16.3303328142767,-7.91929583891168));
#338=CARTESIAN_POINT('Ctrl Pts',(10.7832271617364,16.3065347179094,-7.91729051893206));
#339=CARTESIAN_POINT('Ctrl Pts',(10.7662897891988,16.2936225659666,-7.91620249088683));
#340=CARTESIAN_POINT('Ctrl Pts',(10.7502893911484,16.279643833276,-7.91564599822711));
#341=CARTESIAN_POINT('Ctrl Pts',(10.7353229218498,16.2646770781502,-7.91564580876752));
#342=CARTESIAN_POINT('Ctrl Pts',(10.7087009257879,16.2380545736655,-7.91564547176137));
#343=CARTESIAN_POINT('Ctrl Pts',(10.6853415224501,16.2083104006261,-7.91739682800992));
#344=CARTESIAN_POINT('Ctrl Pts',(10.6656007090601,16.176061935006,-7.92074192772322));
#345=CARTESIAN_POINT('Ctrl Pts',(10.6322936257418,16.1216516981999,-7.92638584485357));
#346=CARTESIAN_POINT('Ctrl Pts',(10.6102413560081,16.0618051296866,-7.93634073275346));
#347=CARTESIAN_POINT('Ctrl Pts',(10.5999986266945,16.0000014251283,-7.94999935364158));
#348=CARTESIAN_POINT('Origin',(0.,27.,0.));
#349=CARTESIAN_POINT('Ctrl Pts',(10.6266974879533,16.,7.91427826775924));
#350=CARTESIAN_POINT('Ctrl Pts',(10.6266974879533,16.3733025120467,7.91427826775924));
#351=CARTESIAN_POINT('Ctrl Pts',(11.,16.3733025120467,7.91427826775924));
#352=CARTESIAN_POINT('Ctrl Pts',(4.9122834919124,16.,15.5871635015567));
#353=CARTESIAN_POINT('Ctrl Pts',(4.91228349191226,22.0877165080877,15.5871635015567));
#354=CARTESIAN_POINT('Ctrl Pts',(11.,22.0877165080876,15.5871635015567));
#355=CARTESIAN_POINT('Ctrl Pts',(-4.1688582540438,16.,12.5770871372385));
#356=CARTESIAN_POINT('Ctrl Pts',(-4.16885825404415,31.1688582540441,12.5770871372385));
#357=CARTESIAN_POINT('Ctrl Pts',(11.,31.1688582540438,12.5770871372385));
#358=CARTESIAN_POINT('Ctrl Pts',(-13.25,16.,9.5670107729204));
#359=CARTESIAN_POINT('Ctrl Pts',(-13.2500000000006,40.2500000000006,9.5670107729204));
#360=CARTESIAN_POINT('Ctrl Pts',(11.,40.25,9.5670107729204));
#361=CARTESIAN_POINT('Ctrl Pts',(-13.25,16.,-1.17683640610267E-14));
#362=CARTESIAN_POINT('Ctrl Pts',(-13.2500000000006,40.2500000000006,-1.17683640610267E-14));
#363=CARTESIAN_POINT('Ctrl Pts',(11.,40.25,-1.17683640610267E-14));
#364=CARTESIAN_POINT('Ctrl Pts',(-13.25,16.,-9.56701077292042));
#365=CARTESIAN_POINT('Ctrl Pts',(-13.2500000000005,40.2500000000006,-9.56701077292042));
#366=CARTESIAN_POINT('Ctrl Pts',(11.,40.25,-9.56701077292042));
#367=CARTESIAN_POINT('Ctrl Pts',(-4.16885825404378,16.,-12.5770871372385));
#368=CARTESIAN_POINT('Ctrl Pts',(-4.16885825404413,31.1688582540441,-12.5770871372385));
#369=CARTESIAN_POINT('Ctrl Pts',(11.,31.1688582540438,-12.5770871372385));
#370=CARTESIAN_POINT('Ctrl Pts',(4.91228349191243,16.,-15.5871635015567));
#371=CARTESIAN_POINT('Ctrl Pts',(4.91228349191229,22.0877165080877,-15.5871635015567));
#372=CARTESIAN_POINT('Ctrl Pts',(11.,22.0877165080876,-15.5871635015567));
#373=CARTESIAN_POINT('Ctrl Pts',(10.6266974879534,16.,-7.91427826775922));
#374=CARTESIAN_POINT('Ctrl Pts',(10.6266974879533,16.3733025120467,-7.91427826775922));
#375=CARTESIAN_POINT('Ctrl Pts',(11.,16.3733025120466,-7.91427826775922));
#376=CARTESIAN_POINT('Origin',(0.,16.,0.));
#377=CARTESIAN_POINT('Origin',(11.,27.,0.));
#378=CARTESIAN_POINT('Origin',(0.,0.,0.));
#379=CARTESIAN_POINT('',(13.25,0.5,1.62265700887024E-15));
#380=CARTESIAN_POINT('Origin',(0.,0.5,0.));
#381=CARTESIAN_POINT('Origin',(26.5,27.,0.));
#382=CARTESIAN_POINT('',(26.5,17.,1.22464679914735E-15));
#383=CARTESIAN_POINT('Origin',(26.5,27.,0.));
#384=CARTESIAN_POINT('',(27.,16.5,-1.28587913910472E-15));
#385=CARTESIAN_POINT('Origin',(27.,27.,0.));
#386=CARTESIAN_POINT('Origin',(27.,27.,0.));
#387=CARTESIAN_POINT('',(27.,14.25,1.56142466891288E-15));
#388=CARTESIAN_POINT('Origin',(27.,27.,0.));
#389=CARTESIAN_POINT('Origin',(27.,27.,0.));
#390=CARTESIAN_POINT('',(11.,17.,1.22464679914735E-15));
#391=CARTESIAN_POINT('Origin',(11.,27.,0.));
#392=CARTESIAN_POINT('Origin',(26.5,27.,0.));
#393=CARTESIAN_POINT('',(26.5,13.75,-1.62265700887024E-15));
#394=CARTESIAN_POINT('Origin',(26.5,27.,0.));
#395=CARTESIAN_POINT('Origin',(11.,27.,0.));
#396=CARTESIAN_POINT('Origin',(0.,0.5,0.));
#397=CARTESIAN_POINT('',(10.,0.5,-1.22464679914735E-15));
#398=CARTESIAN_POINT('Origin',(0.,0.5,0.));
#399=CARTESIAN_POINT('',(10.5,0.,1.28587913910472E-15));
#400=CARTESIAN_POINT('Origin',(0.,0.,0.));
#401=CARTESIAN_POINT('Origin',(-1.35221417405854E-16,0.,0.));
#402=CARTESIAN_POINT('',(12.75,0.,-1.56142466891288E-15));
#403=CARTESIAN_POINT('Origin',(0.,0.,0.));
#404=CARTESIAN_POINT('Origin',(0.,0.,0.));
#405=CARTESIAN_POINT('',(10.,16.,1.22464679914735E-15));
#406=CARTESIAN_POINT('Origin',(0.,16.,0.));
#407=CARTESIAN_POINT('Origin',(0.,0.5,0.));
#408=CARTESIAN_POINT('Origin',(11.,16.,0.));
#409=CARTESIAN_POINT('',(11.,36.5,0.));
#410=CARTESIAN_POINT('Origin',(11.,27.,0.));
#411=CARTESIAN_POINT('',(-9.5,16.,-2.1094237467878E-15));
#412=CARTESIAN_POINT('Origin',(0.,16.,0.));
#413=CARTESIAN_POINT('Origin',(11.,27.,0.));
#414=CARTESIAN_POINT('Origin',(-4.72128241470665E-16,16.,0.));
#415=UNCERTAINTY_MEASURE_WITH_UNIT(LENGTH_MEASURE(0.01),#419,
'DISTANCE_ACCURACY_VALUE',
'Maximum model space distance between geometric entities at asserted c
onnectivities');
#416=UNCERTAINTY_MEASURE_WITH_UNIT(LENGTH_MEASURE(1.E-6),#419,
'DISTANCE_ACCURACY_VALUE',
'Maximum model space distance between geometric entities at asserted c
onnectivities');
#417=(
GEOMETRIC_REPRESENTATION_CONTEXT(3)
GLOBAL_UNCERTAINTY_ASSIGNED_CONTEXT((#415))
GLOBAL_UNIT_ASSIGNED_CONTEXT((#419,#422,#420))
REPRESENTATION_CONTEXT('','3D')
);
#418=(
GEOMETRIC_REPRESENTATION_CONTEXT(3)
GLOBAL_UNCERTAINTY_ASSIGNED_CONTEXT((#416))
GLOBAL_UNIT_ASSIGNED_CONTEXT((#419,#422,#420))
REPRESENTATION_CONTEXT('','3D')
);
#419=(
LENGTH_UNIT()
NAMED_UNIT(*)
SI_UNIT(.MILLI.,.METRE.)
);
#420=(
NAMED_UNIT(*)
SI_UNIT($,.STERADIAN.)
SOLID_ANGLE_UNIT()
);
#421=DIMENSIONAL_EXPONENTS(0.,0.,0.,0.,0.,0.,0.);
#422=(
CONVERSION_BASED_UNIT('degree',#424)
NAMED_UNIT(#421)
PLANE_ANGLE_UNIT()
);
#423=(
NAMED_UNIT(*)
PLANE_ANGLE_UNIT()
SI_UNIT($,.RADIAN.)
);
#424=PLANE_ANGLE_MEASURE_WITH_UNIT(PLANE_ANGLE_MEASURE(0.01745329252),#423);
#425=SHAPE_DEFINITION_REPRESENTATION(#426,#427);
#426=PRODUCT_DEFINITION_SHAPE('',$,#429);
#427=SHAPE_REPRESENTATION('',(#190),#417);
#428=PRODUCT_DEFINITION_CONTEXT('part definition',#433,'design');
#429=PRODUCT_DEFINITION('EL500200','EL500200',#430,#428);
#430=PRODUCT_DEFINITION_FORMATION('',$,#435);
#431=PRODUCT_RELATED_PRODUCT_CATEGORY('EL500200','EL500200',(#435));
#432=APPLICATION_PROTOCOL_DEFINITION('international standard',
'automotive_design',2009,#433);
#433=APPLICATION_CONTEXT(
'Core Data for Automotive Mechanical Design Process');
#434=PRODUCT_CONTEXT('part definition',#433,'mechanical');
#435=PRODUCT('EL500200','EL500200',$,(#434));
#436=PRESENTATION_STYLE_ASSIGNMENT((#437));
#437=SURFACE_STYLE_USAGE(.BOTH.,#438);
#438=SURFACE_SIDE_STYLE('',(#439));
#439=SURFACE_STYLE_FILL_AREA(#440);
#440=FILL_AREA_STYLE('',(#441));
#441=FILL_AREA_STYLE_COLOUR('',#442);
#442=COLOUR_RGB('',0.8,0.8,0.8);
ENDSEC;
END-ISO-10303-21;
