ISO-10303-21;
HEADER;
/* Generated by software containing ST-Developer
 * from STEP Tools, Inc. (www.steptools.com) 
 */

FILE_DESCRIPTION(
/* description */ (''),
/* implementation_level */ '2;1');

FILE_NAME(
/* name */ 
'Q:\\Ric010\\FF7\\FIPlastiCAD\\FIP\\Lavoro\\PVC Fittings\\PVC Fittings
 STEP\\DIFV\\DIFV032025100.ipt.stp',
/* time_stamp */ '2013-10-01T14:36:49+02:00',
/* author */ ('bfaro'),
/* organization */ (''),
/* preprocessor_version */ 'ST-DEVELOPER v15.2',
/* originating_system */ 'Autodesk Inventor 2014',
/* authorisation */ '');

FILE_SCHEMA (('AUTOMOTIVE_DESIGN { 1 0 10303 214 3 1 1 }'));
ENDSEC;

DATA;
#10=SHAPE_REPRESENTATION_RELATIONSHIP('SRR','None',#584,#11);
#11=ADVANCED_BREP_SHAPE_REPRESENTATION($,(#343),#575);
#12=TOROIDAL_SURFACE($,#379,11.5,1.);
#13=STYLED_ITEM($,(#593),#338);
#14=STYLED_ITEM($,(#592),#343);
#15=CYLINDRICAL_SURFACE($,#360,21.25);
#16=CYLINDRICAL_SURFACE($,#362,17.1);
#17=CYLINDRICAL_SURFACE($,#370,16.);
#18=CYLINDRICAL_SURFACE($,#374,21.25);
#19=CYLINDRICAL_SURFACE($,#376,15.1455);
#20=CYLINDRICAL_SURFACE($,#377,11.5);
#21=CYLINDRICAL_SURFACE($,#381,12.5);
#22=FACE_BOUND($,#75,.T.);
#23=FACE_BOUND($,#76,.T.);
#24=FACE_BOUND($,#77,.T.);
#25=FACE_BOUND($,#79,.T.);
#26=FACE_BOUND($,#89,.T.);
#27=FACE_BOUND($,#91,.T.);
#28=FACE_BOUND($,#92,.T.);
#29=FACE_BOUND($,#93,.T.);
#30=FACE_BOUND($,#95,.T.);
#31=FACE_BOUND($,#97,.T.);
#32=FACE_BOUND($,#99,.T.);
#33=FACE_BOUND($,#101,.T.);
#34=FACE_BOUND($,#102,.T.);
#35=FACE_BOUND($,#103,.T.);
#36=FACE_BOUND($,#105,.T.);
#37=FACE_BOUND($,#107,.T.);
#38=FACE_BOUND($,#109,.T.);
#39=FACE_BOUND($,#111,.T.);
#40=CIRCLE($,#346,21.25);
#41=CIRCLE($,#348,11.5);
#42=CIRCLE($,#349,15.1455);
#43=CIRCLE($,#351,21.25);
#44=CIRCLE($,#361,21.25);
#45=CIRCLE($,#363,17.1);
#46=CIRCLE($,#364,17.1);
#47=CIRCLE($,#366,15.1455);
#48=CIRCLE($,#368,16.);
#49=CIRCLE($,#369,12.5);
#50=CIRCLE($,#371,16.);
#51=CIRCLE($,#373,21.25);
#52=CIRCLE($,#378,11.5);
#53=CIRCLE($,#380,12.5);
#54=FACE_OUTER_BOUND($,#74,.T.);
#55=FACE_OUTER_BOUND($,#78,.T.);
#56=FACE_OUTER_BOUND($,#80,.T.);
#57=FACE_OUTER_BOUND($,#81,.T.);
#58=FACE_OUTER_BOUND($,#82,.T.);
#59=FACE_OUTER_BOUND($,#83,.T.);
#60=FACE_OUTER_BOUND($,#84,.T.);
#61=FACE_OUTER_BOUND($,#85,.T.);
#62=FACE_OUTER_BOUND($,#86,.T.);
#63=FACE_OUTER_BOUND($,#87,.T.);
#64=FACE_OUTER_BOUND($,#88,.T.);
#65=FACE_OUTER_BOUND($,#90,.T.);
#66=FACE_OUTER_BOUND($,#94,.T.);
#67=FACE_OUTER_BOUND($,#96,.T.);
#68=FACE_OUTER_BOUND($,#98,.T.);
#69=FACE_OUTER_BOUND($,#100,.T.);
#70=FACE_OUTER_BOUND($,#104,.T.);
#71=FACE_OUTER_BOUND($,#106,.T.);
#72=FACE_OUTER_BOUND($,#108,.T.);
#73=FACE_OUTER_BOUND($,#110,.T.);
#74=EDGE_LOOP($,(#228,#229,#230,#231,#232,#233,#234,#235));
#75=EDGE_LOOP($,(#236));
#76=EDGE_LOOP($,(#237));
#77=EDGE_LOOP($,(#238));
#78=EDGE_LOOP($,(#239,#240,#241,#242,#243,#244,#245,#246));
#79=EDGE_LOOP($,(#247));
#80=EDGE_LOOP($,(#248,#249,#250,#251));
#81=EDGE_LOOP($,(#252,#253,#254,#255));
#82=EDGE_LOOP($,(#256,#257,#258,#259));
#83=EDGE_LOOP($,(#260,#261,#262,#263));
#84=EDGE_LOOP($,(#264,#265,#266,#267));
#85=EDGE_LOOP($,(#268,#269,#270,#271));
#86=EDGE_LOOP($,(#272,#273,#274,#275));
#87=EDGE_LOOP($,(#276,#277,#278,#279));
#88=EDGE_LOOP($,(#280));
#89=EDGE_LOOP($,(#281));
#90=EDGE_LOOP($,(#282));
#91=EDGE_LOOP($,(#283));
#92=EDGE_LOOP($,(#284));
#93=EDGE_LOOP($,(#285));
#94=EDGE_LOOP($,(#286));
#95=EDGE_LOOP($,(#287));
#96=EDGE_LOOP($,(#288));
#97=EDGE_LOOP($,(#289));
#98=EDGE_LOOP($,(#290));
#99=EDGE_LOOP($,(#291));
#100=EDGE_LOOP($,(#292));
#101=EDGE_LOOP($,(#293));
#102=EDGE_LOOP($,(#294));
#103=EDGE_LOOP($,(#295));
#104=EDGE_LOOP($,(#296));
#105=EDGE_LOOP($,(#297));
#106=EDGE_LOOP($,(#298));
#107=EDGE_LOOP($,(#299));
#108=EDGE_LOOP($,(#300));
#109=EDGE_LOOP($,(#301));
#110=EDGE_LOOP($,(#302));
#111=EDGE_LOOP($,(#303));
#112=LINE($,#486,#136);
#113=LINE($,#488,#137);
#114=LINE($,#490,#138);
#115=LINE($,#492,#139);
#116=LINE($,#494,#140);
#117=LINE($,#496,#141);
#118=LINE($,#498,#142);
#119=LINE($,#499,#143);
#120=LINE($,#510,#144);
#121=LINE($,#512,#145);
#122=LINE($,#514,#146);
#123=LINE($,#516,#147);
#124=LINE($,#518,#148);
#125=LINE($,#520,#149);
#126=LINE($,#522,#150);
#127=LINE($,#523,#151);
#128=LINE($,#527,#152);
#129=LINE($,#528,#153);
#130=LINE($,#530,#154);
#131=LINE($,#532,#155);
#132=LINE($,#534,#156);
#133=LINE($,#536,#157);
#134=LINE($,#538,#158);
#135=LINE($,#540,#159);
#136=VECTOR($,#386,19.0538238691624);
#137=VECTOR($,#387,19.0538238691624);
#138=VECTOR($,#388,19.0538238691624);
#139=VECTOR($,#389,19.0538238691624);
#140=VECTOR($,#390,19.0538238691624);
#141=VECTOR($,#391,19.0538238691624);
#142=VECTOR($,#392,19.0538238691624);
#143=VECTOR($,#393,19.0538238691624);
#144=VECTOR($,#404,19.0538238691624);
#145=VECTOR($,#405,19.0538238691624);
#146=VECTOR($,#406,19.0538238691624);
#147=VECTOR($,#407,19.0538238691624);
#148=VECTOR($,#408,19.0538238691624);
#149=VECTOR($,#409,19.0538238691624);
#150=VECTOR($,#410,19.0538238691624);
#151=VECTOR($,#411,19.0538238691624);
#152=VECTOR($,#416,11.8);
#153=VECTOR($,#417,11.8);
#154=VECTOR($,#420,11.8);
#155=VECTOR($,#423,11.8);
#156=VECTOR($,#426,11.8);
#157=VECTOR($,#429,11.8);
#158=VECTOR($,#432,11.8);
#159=VECTOR($,#435,11.8);
#160=VERTEX_POINT($,#484);
#161=VERTEX_POINT($,#485);
#162=VERTEX_POINT($,#487);
#163=VERTEX_POINT($,#489);
#164=VERTEX_POINT($,#491);
#165=VERTEX_POINT($,#493);
#166=VERTEX_POINT($,#495);
#167=VERTEX_POINT($,#497);
#168=VERTEX_POINT($,#500);
#169=VERTEX_POINT($,#503);
#170=VERTEX_POINT($,#505);
#171=VERTEX_POINT($,#508);
#172=VERTEX_POINT($,#509);
#173=VERTEX_POINT($,#511);
#174=VERTEX_POINT($,#513);
#175=VERTEX_POINT($,#515);
#176=VERTEX_POINT($,#517);
#177=VERTEX_POINT($,#519);
#178=VERTEX_POINT($,#521);
#179=VERTEX_POINT($,#524);
#180=VERTEX_POINT($,#543);
#181=VERTEX_POINT($,#546);
#182=VERTEX_POINT($,#548);
#183=VERTEX_POINT($,#551);
#184=VERTEX_POINT($,#554);
#185=VERTEX_POINT($,#556);
#186=VERTEX_POINT($,#559);
#187=VERTEX_POINT($,#562);
#188=VERTEX_POINT($,#568);
#189=VERTEX_POINT($,#571);
#190=EDGE_CURVE($,#160,#161,#112,.T.);
#191=EDGE_CURVE($,#161,#162,#113,.T.);
#192=EDGE_CURVE($,#162,#163,#114,.T.);
#193=EDGE_CURVE($,#163,#164,#115,.T.);
#194=EDGE_CURVE($,#164,#165,#116,.T.);
#195=EDGE_CURVE($,#165,#166,#117,.T.);
#196=EDGE_CURVE($,#166,#167,#118,.T.);
#197=EDGE_CURVE($,#167,#160,#119,.T.);
#198=EDGE_CURVE($,#168,#168,#40,.T.);
#199=EDGE_CURVE($,#169,#169,#41,.T.);
#200=EDGE_CURVE($,#170,#170,#42,.T.);
#201=EDGE_CURVE($,#171,#172,#120,.T.);
#202=EDGE_CURVE($,#172,#173,#121,.T.);
#203=EDGE_CURVE($,#173,#174,#122,.T.);
#204=EDGE_CURVE($,#174,#175,#123,.T.);
#205=EDGE_CURVE($,#175,#176,#124,.T.);
#206=EDGE_CURVE($,#176,#177,#125,.T.);
#207=EDGE_CURVE($,#177,#178,#126,.T.);
#208=EDGE_CURVE($,#178,#171,#127,.T.);
#209=EDGE_CURVE($,#179,#179,#43,.T.);
#210=EDGE_CURVE($,#172,#160,#128,.T.);
#211=EDGE_CURVE($,#173,#167,#129,.T.);
#212=EDGE_CURVE($,#174,#166,#130,.T.);
#213=EDGE_CURVE($,#175,#165,#131,.T.);
#214=EDGE_CURVE($,#176,#164,#132,.T.);
#215=EDGE_CURVE($,#177,#163,#133,.T.);
#216=EDGE_CURVE($,#178,#162,#134,.T.);
#217=EDGE_CURVE($,#171,#161,#135,.T.);
#218=EDGE_CURVE($,#180,#180,#44,.T.);
#219=EDGE_CURVE($,#181,#181,#45,.T.);
#220=EDGE_CURVE($,#182,#182,#46,.T.);
#221=EDGE_CURVE($,#183,#183,#47,.T.);
#222=EDGE_CURVE($,#184,#184,#48,.T.);
#223=EDGE_CURVE($,#185,#185,#49,.T.);
#224=EDGE_CURVE($,#186,#186,#50,.T.);
#225=EDGE_CURVE($,#187,#187,#51,.T.);
#226=EDGE_CURVE($,#188,#188,#52,.T.);
#227=EDGE_CURVE($,#189,#189,#53,.T.);
#228=ORIENTED_EDGE($,*,*,#190,.T.);
#229=ORIENTED_EDGE($,*,*,#191,.T.);
#230=ORIENTED_EDGE($,*,*,#192,.T.);
#231=ORIENTED_EDGE($,*,*,#193,.T.);
#232=ORIENTED_EDGE($,*,*,#194,.T.);
#233=ORIENTED_EDGE($,*,*,#195,.T.);
#234=ORIENTED_EDGE($,*,*,#196,.T.);
#235=ORIENTED_EDGE($,*,*,#197,.T.);
#236=ORIENTED_EDGE($,*,*,#198,.F.);
#237=ORIENTED_EDGE($,*,*,#199,.T.);
#238=ORIENTED_EDGE($,*,*,#200,.F.);
#239=ORIENTED_EDGE($,*,*,#201,.T.);
#240=ORIENTED_EDGE($,*,*,#202,.T.);
#241=ORIENTED_EDGE($,*,*,#203,.T.);
#242=ORIENTED_EDGE($,*,*,#204,.T.);
#243=ORIENTED_EDGE($,*,*,#205,.T.);
#244=ORIENTED_EDGE($,*,*,#206,.T.);
#245=ORIENTED_EDGE($,*,*,#207,.T.);
#246=ORIENTED_EDGE($,*,*,#208,.T.);
#247=ORIENTED_EDGE($,*,*,#209,.F.);
#248=ORIENTED_EDGE($,*,*,#202,.F.);
#249=ORIENTED_EDGE($,*,*,#210,.T.);
#250=ORIENTED_EDGE($,*,*,#197,.F.);
#251=ORIENTED_EDGE($,*,*,#211,.F.);
#252=ORIENTED_EDGE($,*,*,#203,.F.);
#253=ORIENTED_EDGE($,*,*,#211,.T.);
#254=ORIENTED_EDGE($,*,*,#196,.F.);
#255=ORIENTED_EDGE($,*,*,#212,.F.);
#256=ORIENTED_EDGE($,*,*,#204,.F.);
#257=ORIENTED_EDGE($,*,*,#212,.T.);
#258=ORIENTED_EDGE($,*,*,#195,.F.);
#259=ORIENTED_EDGE($,*,*,#213,.F.);
#260=ORIENTED_EDGE($,*,*,#205,.F.);
#261=ORIENTED_EDGE($,*,*,#213,.T.);
#262=ORIENTED_EDGE($,*,*,#194,.F.);
#263=ORIENTED_EDGE($,*,*,#214,.F.);
#264=ORIENTED_EDGE($,*,*,#206,.F.);
#265=ORIENTED_EDGE($,*,*,#214,.T.);
#266=ORIENTED_EDGE($,*,*,#193,.F.);
#267=ORIENTED_EDGE($,*,*,#215,.F.);
#268=ORIENTED_EDGE($,*,*,#207,.F.);
#269=ORIENTED_EDGE($,*,*,#215,.T.);
#270=ORIENTED_EDGE($,*,*,#192,.F.);
#271=ORIENTED_EDGE($,*,*,#216,.F.);
#272=ORIENTED_EDGE($,*,*,#208,.F.);
#273=ORIENTED_EDGE($,*,*,#216,.T.);
#274=ORIENTED_EDGE($,*,*,#191,.F.);
#275=ORIENTED_EDGE($,*,*,#217,.F.);
#276=ORIENTED_EDGE($,*,*,#201,.F.);
#277=ORIENTED_EDGE($,*,*,#217,.T.);
#278=ORIENTED_EDGE($,*,*,#190,.F.);
#279=ORIENTED_EDGE($,*,*,#210,.F.);
#280=ORIENTED_EDGE($,*,*,#218,.F.);
#281=ORIENTED_EDGE($,*,*,#209,.T.);
#282=ORIENTED_EDGE($,*,*,#219,.T.);
#283=ORIENTED_EDGE($,*,*,#220,.F.);
#284=ORIENTED_EDGE($,*,*,#221,.F.);
#285=ORIENTED_EDGE($,*,*,#219,.F.);
#286=ORIENTED_EDGE($,*,*,#222,.F.);
#287=ORIENTED_EDGE($,*,*,#223,.T.);
#288=ORIENTED_EDGE($,*,*,#224,.F.);
#289=ORIENTED_EDGE($,*,*,#222,.T.);
#290=ORIENTED_EDGE($,*,*,#225,.F.);
#291=ORIENTED_EDGE($,*,*,#224,.T.);
#292=ORIENTED_EDGE($,*,*,#198,.T.);
#293=ORIENTED_EDGE($,*,*,#225,.T.);
#294=ORIENTED_EDGE($,*,*,#220,.T.);
#295=ORIENTED_EDGE($,*,*,#218,.T.);
#296=ORIENTED_EDGE($,*,*,#200,.T.);
#297=ORIENTED_EDGE($,*,*,#221,.T.);
#298=ORIENTED_EDGE($,*,*,#199,.F.);
#299=ORIENTED_EDGE($,*,*,#226,.F.);
#300=ORIENTED_EDGE($,*,*,#227,.F.);
#301=ORIENTED_EDGE($,*,*,#226,.T.);
#302=ORIENTED_EDGE($,*,*,#223,.F.);
#303=ORIENTED_EDGE($,*,*,#227,.T.);
#304=PLANE($,#345);
#305=PLANE($,#347);
#306=PLANE($,#350);
#307=PLANE($,#352);
#308=PLANE($,#353);
#309=PLANE($,#354);
#310=PLANE($,#355);
#311=PLANE($,#356);
#312=PLANE($,#357);
#313=PLANE($,#358);
#314=PLANE($,#359);
#315=PLANE($,#365);
#316=PLANE($,#367);
#317=PLANE($,#372);
#318=PLANE($,#375);
#319=ADVANCED_FACE($,(#54,#22),#304,.F.);
#320=ADVANCED_FACE($,(#23,#24),#305,.T.);
#321=ADVANCED_FACE($,(#55,#25),#306,.T.);
#322=ADVANCED_FACE($,(#56),#307,.T.);
#323=ADVANCED_FACE($,(#57),#308,.T.);
#324=ADVANCED_FACE($,(#58),#309,.T.);
#325=ADVANCED_FACE($,(#59),#310,.T.);
#326=ADVANCED_FACE($,(#60),#311,.T.);
#327=ADVANCED_FACE($,(#61),#312,.T.);
#328=ADVANCED_FACE($,(#62),#313,.T.);
#329=ADVANCED_FACE($,(#63),#314,.T.);
#330=ADVANCED_FACE($,(#64,#26),#15,.T.);
#331=ADVANCED_FACE($,(#65,#27),#16,.F.);
#332=ADVANCED_FACE($,(#28,#29),#315,.T.);
#333=ADVANCED_FACE($,(#66,#30),#316,.T.);
#334=ADVANCED_FACE($,(#67,#31),#17,.T.);
#335=ADVANCED_FACE($,(#68,#32),#317,.T.);
#336=ADVANCED_FACE($,(#69,#33),#18,.T.);
#337=ADVANCED_FACE($,(#34,#35),#318,.T.);
#338=ADVANCED_FACE($,(#70,#36),#19,.F.);
#339=ADVANCED_FACE($,(#71,#37),#20,.F.);
#340=ADVANCED_FACE($,(#72,#38),#12,.F.);
#341=ADVANCED_FACE($,(#73,#39),#21,.F.);
#342=CLOSED_SHELL($,(#319,#320,#321,#322,#323,#324,#325,#326,#327,#328,
#329,#330,#331,#332,#333,#334,#335,#336,#337,#338,#339,#340,#341));
#343=MANIFOLD_SOLID_BREP('Solido1',#342);
#344=AXIS2_PLACEMENT_3D('placement',#482,#382,#383);
#345=AXIS2_PLACEMENT_3D($,#483,#384,#385);
#346=AXIS2_PLACEMENT_3D($,#501,#394,#395);
#347=AXIS2_PLACEMENT_3D($,#502,#396,#397);
#348=AXIS2_PLACEMENT_3D($,#504,#398,#399);
#349=AXIS2_PLACEMENT_3D($,#506,#400,#401);
#350=AXIS2_PLACEMENT_3D($,#507,#402,#403);
#351=AXIS2_PLACEMENT_3D($,#525,#412,#413);
#352=AXIS2_PLACEMENT_3D($,#526,#414,#415);
#353=AXIS2_PLACEMENT_3D($,#529,#418,#419);
#354=AXIS2_PLACEMENT_3D($,#531,#421,#422);
#355=AXIS2_PLACEMENT_3D($,#533,#424,#425);
#356=AXIS2_PLACEMENT_3D($,#535,#427,#428);
#357=AXIS2_PLACEMENT_3D($,#537,#430,#431);
#358=AXIS2_PLACEMENT_3D($,#539,#433,#434);
#359=AXIS2_PLACEMENT_3D($,#541,#436,#437);
#360=AXIS2_PLACEMENT_3D($,#542,#438,#439);
#361=AXIS2_PLACEMENT_3D($,#544,#440,#441);
#362=AXIS2_PLACEMENT_3D($,#545,#442,#443);
#363=AXIS2_PLACEMENT_3D($,#547,#444,#445);
#364=AXIS2_PLACEMENT_3D($,#549,#446,#447);
#365=AXIS2_PLACEMENT_3D($,#550,#448,#449);
#366=AXIS2_PLACEMENT_3D($,#552,#450,#451);
#367=AXIS2_PLACEMENT_3D($,#553,#452,#453);
#368=AXIS2_PLACEMENT_3D($,#555,#454,#455);
#369=AXIS2_PLACEMENT_3D($,#557,#456,#457);
#370=AXIS2_PLACEMENT_3D($,#558,#458,#459);
#371=AXIS2_PLACEMENT_3D($,#560,#460,#461);
#372=AXIS2_PLACEMENT_3D($,#561,#462,#463);
#373=AXIS2_PLACEMENT_3D($,#563,#464,#465);
#374=AXIS2_PLACEMENT_3D($,#564,#466,#467);
#375=AXIS2_PLACEMENT_3D($,#565,#468,#469);
#376=AXIS2_PLACEMENT_3D($,#566,#470,#471);
#377=AXIS2_PLACEMENT_3D($,#567,#472,#473);
#378=AXIS2_PLACEMENT_3D($,#569,#474,#475);
#379=AXIS2_PLACEMENT_3D($,#570,#476,#477);
#380=AXIS2_PLACEMENT_3D($,#572,#478,#479);
#381=AXIS2_PLACEMENT_3D($,#573,#480,#481);
#382=DIRECTION('axis',(0.,0.,1.));
#383=DIRECTION('refdir',(1.,0.,0.));
#384=DIRECTION('center_axis',(0.,0.,1.));
#385=DIRECTION('ref_axis',(1.,0.,0.));
#386=DIRECTION($,(0.930981860505553,0.365065439900327,0.));
#387=DIRECTION($,(0.916443834855516,-0.400163338594774,0.));
#388=DIRECTION($,(0.365065439900327,-0.930981860505553,0.));
#389=DIRECTION($,(-0.400163338594774,-0.916443834855516,0.));
#390=DIRECTION($,(-0.930981860505553,-0.365065439900327,0.));
#391=DIRECTION($,(-0.916443834855516,0.400163338594773,0.));
#392=DIRECTION($,(-0.365065439900327,0.930981860505553,0.));
#393=DIRECTION($,(0.400163338594773,0.916443834855516,0.));
#394=DIRECTION('center_axis',(0.,0.,-1.));
#395=DIRECTION('ref_axis',(0.,-1.,0.));
#396=DIRECTION('center_axis',(0.,0.,1.));
#397=DIRECTION('ref_axis',(1.,0.,0.));
#398=DIRECTION('center_axis',(0.,0.,-1.));
#399=DIRECTION('ref_axis',(1.,0.,0.));
#400=DIRECTION('center_axis',(0.,0.,-1.));
#401=DIRECTION('ref_axis',(0.,-1.,0.));
#402=DIRECTION('center_axis',(0.,0.,1.));
#403=DIRECTION('ref_axis',(1.,0.,0.));
#404=DIRECTION($,(-0.930981860505553,-0.365065439900327,0.));
#405=DIRECTION($,(-0.400163338594773,-0.916443834855516,0.));
#406=DIRECTION($,(0.365065439900327,-0.930981860505553,0.));
#407=DIRECTION($,(0.916443834855516,-0.400163338594773,0.));
#408=DIRECTION($,(0.930981860505553,0.365065439900327,0.));
#409=DIRECTION($,(0.400163338594774,0.916443834855516,0.));
#410=DIRECTION($,(-0.365065439900327,0.930981860505553,0.));
#411=DIRECTION($,(-0.916443834855516,0.400163338594774,0.));
#412=DIRECTION('center_axis',(0.,0.,1.));
#413=DIRECTION('ref_axis',(0.,-1.,0.));
#414=DIRECTION('center_axis',(-0.916443834855516,0.400163338594773,0.));
#415=DIRECTION('ref_axis',(0.400163338594773,0.916443834855516,0.));
#416=DIRECTION($,(0.,0.,-1.));
#417=DIRECTION($,(0.,0.,-1.));
#418=DIRECTION('center_axis',(-0.930981860505553,-0.365065439900327,0.));
#419=DIRECTION('ref_axis',(-0.365065439900327,0.930981860505553,0.));
#420=DIRECTION($,(0.,0.,-1.));
#421=DIRECTION('center_axis',(-0.400163338594773,-0.916443834855516,0.));
#422=DIRECTION('ref_axis',(-0.916443834855516,0.400163338594773,0.));
#423=DIRECTION($,(0.,0.,-1.));
#424=DIRECTION('center_axis',(0.365065439900327,-0.930981860505553,0.));
#425=DIRECTION('ref_axis',(-0.930981860505553,-0.365065439900327,0.));
#426=DIRECTION($,(0.,0.,-1.));
#427=DIRECTION('center_axis',(0.916443834855516,-0.400163338594774,0.));
#428=DIRECTION('ref_axis',(-0.400163338594774,-0.916443834855516,0.));
#429=DIRECTION($,(0.,0.,-1.));
#430=DIRECTION('center_axis',(0.930981860505553,0.365065439900327,0.));
#431=DIRECTION('ref_axis',(0.365065439900327,-0.930981860505553,0.));
#432=DIRECTION($,(0.,0.,-1.));
#433=DIRECTION('center_axis',(0.400163338594774,0.916443834855516,0.));
#434=DIRECTION('ref_axis',(0.916443834855516,-0.400163338594774,0.));
#435=DIRECTION($,(0.,0.,-1.));
#436=DIRECTION('center_axis',(-0.365065439900327,0.930981860505553,0.));
#437=DIRECTION('ref_axis',(0.930981860505553,0.365065439900327,0.));
#438=DIRECTION('center_axis',(0.,0.,1.));
#439=DIRECTION('ref_axis',(0.,-1.,0.));
#440=DIRECTION('center_axis',(0.,0.,1.));
#441=DIRECTION('ref_axis',(0.,-1.,0.));
#442=DIRECTION('center_axis',(0.,0.,-1.));
#443=DIRECTION('ref_axis',(-1.,0.,0.));
#444=DIRECTION('center_axis',(0.,0.,-1.));
#445=DIRECTION('ref_axis',(-1.,0.,0.));
#446=DIRECTION('center_axis',(0.,0.,-1.));
#447=DIRECTION('ref_axis',(-1.,0.,0.));
#448=DIRECTION('center_axis',(0.,0.,1.));
#449=DIRECTION('ref_axis',(1.,0.,0.));
#450=DIRECTION('center_axis',(0.,0.,1.));
#451=DIRECTION('ref_axis',(0.,-1.,0.));
#452=DIRECTION('center_axis',(0.,0.,-1.));
#453=DIRECTION('ref_axis',(-1.,0.,0.));
#454=DIRECTION('center_axis',(0.,0.,1.));
#455=DIRECTION('ref_axis',(0.,-1.,0.));
#456=DIRECTION('center_axis',(0.,0.,1.));
#457=DIRECTION('ref_axis',(0.,-1.,0.));
#458=DIRECTION('center_axis',(0.,0.,1.));
#459=DIRECTION('ref_axis',(0.,-1.,0.));
#460=DIRECTION('center_axis',(0.,0.,1.));
#461=DIRECTION('ref_axis',(0.,-1.,0.));
#462=DIRECTION('center_axis',(0.,0.,-1.));
#463=DIRECTION('ref_axis',(-1.,0.,0.));
#464=DIRECTION('center_axis',(0.,0.,1.));
#465=DIRECTION('ref_axis',(0.,-1.,0.));
#466=DIRECTION('center_axis',(0.,0.,1.));
#467=DIRECTION('ref_axis',(0.,-1.,0.));
#468=DIRECTION('center_axis',(0.,0.,1.));
#469=DIRECTION('ref_axis',(1.,0.,0.));
#470=DIRECTION('center_axis',(0.,0.,1.));
#471=DIRECTION('ref_axis',(0.,-1.,0.));
#472=DIRECTION('center_axis',(0.,0.,1.));
#473=DIRECTION('ref_axis',(0.,-1.,0.));
#474=DIRECTION('center_axis',(0.,0.,1.));
#475=DIRECTION('ref_axis',(0.,-1.,0.));
#476=DIRECTION('center_axis',(0.,0.,1.));
#477=DIRECTION('ref_axis',(1.,0.,0.));
#478=DIRECTION('center_axis',(0.,0.,1.));
#479=DIRECTION('ref_axis',(0.,-1.,0.));
#480=DIRECTION('center_axis',(0.,0.,1.));
#481=DIRECTION('ref_axis',(0.,-1.,0.));
#482=CARTESIAN_POINT('',(0.,0.,0.));
#483=CARTESIAN_POINT('Origin',(-5.4625994904394E-015,-1.04881910216436E-014,
23.2));
#484=CARTESIAN_POINT('',(-17.2658873154365,17.9346364953382,23.2));
#485=CARTESIAN_POINT('',(0.472877080021426,24.8905290879173,23.2));
#486=CARTESIAN_POINT($,(0.472877080021426,24.8905290879173,23.2));
#487=CARTESIAN_POINT('',(17.9346364953382,17.2658873154365,23.2));
#488=CARTESIAN_POINT($,(17.9346364953382,17.2658873154365,23.2));
#489=CARTESIAN_POINT('',(24.8905290879173,-0.472877080021448,23.2));
#490=CARTESIAN_POINT($,(24.8905290879173,-0.472877080021446,23.2));
#491=CARTESIAN_POINT('',(17.2658873154365,-17.9346364953382,23.2));
#492=CARTESIAN_POINT($,(17.2658873154365,-17.9346364953382,23.2));
#493=CARTESIAN_POINT('',(-0.472877080021431,-24.8905290879173,23.2));
#494=CARTESIAN_POINT($,(-0.472877080021431,-24.8905290879173,23.2));
#495=CARTESIAN_POINT('',(-17.9346364953382,-17.2658873154365,23.2));
#496=CARTESIAN_POINT($,(-17.9346364953382,-17.2658873154365,23.2));
#497=CARTESIAN_POINT('',(-24.8905290879173,0.472877080021408,23.2));
#498=CARTESIAN_POINT($,(-24.8905290879173,0.472877080021409,23.2));
#499=CARTESIAN_POINT($,(-17.2658873154365,17.9346364953382,23.2));
#500=CARTESIAN_POINT('',(2.60237444818813E-015,21.25,23.2));
#501=CARTESIAN_POINT('Origin',(0.,0.,23.2));
#502=CARTESIAN_POINT('Origin',(-5.4625994904394E-015,-1.04881910216436E-014,
35.));
#503=CARTESIAN_POINT('',(-11.5,1.40834381901946E-015,35.));
#504=CARTESIAN_POINT('Origin',(0.,0.,35.));
#505=CARTESIAN_POINT('',(1.85478880964862E-015,15.1455,35.));
#506=CARTESIAN_POINT('Origin',(0.,0.,35.));
#507=CARTESIAN_POINT('Origin',(-5.4625994904394E-015,-1.04881910216436E-014,
35.));
#508=CARTESIAN_POINT('',(0.472877080021426,24.8905290879173,35.));
#509=CARTESIAN_POINT('',(-17.2658873154365,17.9346364953382,35.));
#510=CARTESIAN_POINT($,(0.472877080021426,24.8905290879173,35.));
#511=CARTESIAN_POINT('',(-24.8905290879173,0.472877080021409,35.));
#512=CARTESIAN_POINT($,(-17.2658873154365,17.9346364953382,35.));
#513=CARTESIAN_POINT('',(-17.9346364953382,-17.2658873154365,35.));
#514=CARTESIAN_POINT($,(-24.8905290879173,0.472877080021409,35.));
#515=CARTESIAN_POINT('',(-0.472877080021431,-24.8905290879173,35.));
#516=CARTESIAN_POINT($,(-17.9346364953382,-17.2658873154365,35.));
#517=CARTESIAN_POINT('',(17.2658873154365,-17.9346364953382,35.));
#518=CARTESIAN_POINT($,(-0.472877080021431,-24.8905290879173,35.));
#519=CARTESIAN_POINT('',(24.8905290879173,-0.472877080021446,35.));
#520=CARTESIAN_POINT($,(17.2658873154365,-17.9346364953382,35.));
#521=CARTESIAN_POINT('',(17.9346364953382,17.2658873154365,35.));
#522=CARTESIAN_POINT($,(24.8905290879173,-0.472877080021446,35.));
#523=CARTESIAN_POINT($,(17.9346364953382,17.2658873154365,35.));
#524=CARTESIAN_POINT('',(-2.60237444818813E-015,21.25,35.));
#525=CARTESIAN_POINT('Origin',(0.,0.,35.));
#526=CARTESIAN_POINT('Origin',(-24.8905290879173,0.472877080021408,35.));
#527=CARTESIAN_POINT($,(-17.2658873154365,17.9346364953382,35.));
#528=CARTESIAN_POINT($,(-24.8905290879173,0.472877080021409,35.));
#529=CARTESIAN_POINT('Origin',(-17.9346364953382,-17.2658873154365,35.));
#530=CARTESIAN_POINT($,(-17.9346364953382,-17.2658873154365,35.));
#531=CARTESIAN_POINT('Origin',(-0.47287708002143,-24.8905290879173,35.));
#532=CARTESIAN_POINT($,(-0.472877080021431,-24.8905290879173,35.));
#533=CARTESIAN_POINT('Origin',(17.2658873154365,-17.9346364953382,35.));
#534=CARTESIAN_POINT($,(17.2658873154365,-17.9346364953382,35.));
#535=CARTESIAN_POINT('Origin',(24.8905290879173,-0.472877080021445,35.));
#536=CARTESIAN_POINT($,(24.8905290879173,-0.472877080021446,35.));
#537=CARTESIAN_POINT('Origin',(17.9346364953382,17.2658873154365,35.));
#538=CARTESIAN_POINT($,(17.9346364953382,17.2658873154365,35.));
#539=CARTESIAN_POINT('Origin',(0.472877080021421,24.8905290879173,35.));
#540=CARTESIAN_POINT($,(0.472877080021426,24.8905290879173,35.));
#541=CARTESIAN_POINT('Origin',(-17.2658873154365,17.9346364953382,35.));
#542=CARTESIAN_POINT('Origin',(0.,0.,35.35));
#543=CARTESIAN_POINT('',(0.,-21.25,51.5));
#544=CARTESIAN_POINT('Origin',(0.,0.,51.5));
#545=CARTESIAN_POINT('Origin',(0.,0.,51.5));
#546=CARTESIAN_POINT('',(17.1,2.09414602654197E-015,49.3));
#547=CARTESIAN_POINT('Origin',(0.,0.,49.3));
#548=CARTESIAN_POINT('',(17.1,2.09414602654197E-015,51.5));
#549=CARTESIAN_POINT('Origin',(0.,0.,51.5));
#550=CARTESIAN_POINT('Origin',(-1.04018314324509E-015,4.32835487183297E-016,
49.3));
#551=CARTESIAN_POINT('',(15.1455,1.85478880964863E-015,49.3));
#552=CARTESIAN_POINT('Origin',(0.,0.,49.3));
#553=CARTESIAN_POINT('Origin',(0.,-14.25,-5.76118985738806E-016));
#554=CARTESIAN_POINT('',(0.,-16.,0.));
#555=CARTESIAN_POINT('Origin',(0.,0.,0.));
#556=CARTESIAN_POINT('',(0.,-12.5,-1.15223797147761E-015));
#557=CARTESIAN_POINT('Origin',(0.,0.,-1.15359111152458E-015));
#558=CARTESIAN_POINT('Origin',(0.,0.,9.6));
#559=CARTESIAN_POINT('',(0.,-16.,19.2));
#560=CARTESIAN_POINT('Origin',(0.,0.,19.2));
#561=CARTESIAN_POINT('Origin',(0.,-18.625,19.2));
#562=CARTESIAN_POINT('',(0.,-21.25,19.2));
#563=CARTESIAN_POINT('Origin',(0.,0.,19.2));
#564=CARTESIAN_POINT('Origin',(0.,0.,35.35));
#565=CARTESIAN_POINT('Origin',(0.,-18.19775,51.5));
#566=CARTESIAN_POINT('Origin',(0.,0.,41.));
#567=CARTESIAN_POINT('Origin',(0.,0.,24.35));
#568=CARTESIAN_POINT('',(0.,-11.5,19.2));
#569=CARTESIAN_POINT('Origin',(0.,0.,19.2));
#570=CARTESIAN_POINT('Origin',(0.,0.,18.2));
#571=CARTESIAN_POINT('',(0.,-12.5,18.2));
#572=CARTESIAN_POINT('Origin',(0.,0.,18.2));
#573=CARTESIAN_POINT('Origin',(0.,0.,9.1));
#574=UNCERTAINTY_MEASURE_WITH_UNIT(LENGTH_MEASURE(0.01),#576,
'DISTANCE_ACCURACY_VALUE',
'Maximum model space distance between geometric entities at asserted c
onnectivities');
#575=(
GEOMETRIC_REPRESENTATION_CONTEXT(3)
GLOBAL_UNCERTAINTY_ASSIGNED_CONTEXT((#574))
GLOBAL_UNIT_ASSIGNED_CONTEXT((#576,#579,#577))
REPRESENTATION_CONTEXT('','3D')
);
#576=(
LENGTH_UNIT()
NAMED_UNIT(*)
SI_UNIT(.MILLI.,.METRE.)
);
#577=(
NAMED_UNIT(*)
SI_UNIT($,.STERADIAN.)
SOLID_ANGLE_UNIT()
);
#578=DIMENSIONAL_EXPONENTS(0.,0.,0.,0.,0.,0.,0.);
#579=(
CONVERSION_BASED_UNIT('degree',#581)
NAMED_UNIT(#578)
PLANE_ANGLE_UNIT()
);
#580=(
NAMED_UNIT(*)
PLANE_ANGLE_UNIT()
SI_UNIT($,.RADIAN.)
);
#581=PLANE_ANGLE_MEASURE_WITH_UNIT(PLANE_ANGLE_MEASURE(0.01745329252),#580);
#582=SHAPE_DEFINITION_REPRESENTATION(#583,#584);
#583=PRODUCT_DEFINITION_SHAPE('',$,#586);
#584=SHAPE_REPRESENTATION('',(#344),#575);
#585=PRODUCT_DEFINITION_CONTEXT('3D Mechanical Parts',#589,'design');
#586=PRODUCT_DEFINITION('DIFV032025100','DIFV032025100',#587,#585);
#587=PRODUCT_DEFINITION_FORMATION('',$,#591);
#588=APPLICATION_PROTOCOL_DEFINITION('international standard',
'automotive_design',2009,#589);
#589=APPLICATION_CONTEXT(
'Core Data for Automotive Mechanical Design Process');
#590=PRODUCT_CONTEXT('3D Mechanical Parts',#589,'mechanical');
#591=PRODUCT('DIFV032025100','DIFV032025100',$,(#590));
#592=PRESENTATION_STYLE_ASSIGNMENT((#594));
#593=PRESENTATION_STYLE_ASSIGNMENT((#595));
#594=SURFACE_STYLE_USAGE(.BOTH.,#596);
#595=SURFACE_STYLE_USAGE(.BOTH.,#597);
#596=SURFACE_SIDE_STYLE($,(#598));
#597=SURFACE_SIDE_STYLE($,(#599));
#598=SURFACE_STYLE_FILL_AREA(#600);
#599=SURFACE_STYLE_FILL_AREA(#601);
#600=FILL_AREA_STYLE($,(#602));
#601=FILL_AREA_STYLE($,(#603));
#602=FILL_AREA_STYLE_COLOUR($,#604);
#603=FILL_AREA_STYLE_COLOUR($,#605);
#604=COLOUR_RGB('',0.509803921568627,0.509803921568627,0.588235294117647);
#605=COLOUR_RGB('',1.,0.,0.);
ENDSEC;
END-ISO-10303-21;
