ISO-10303-21;
HEADER;
/* Generated by software containing ST-Developer
 * from STEP Tools, Inc. (www.steptools.com) 
 */

FILE_DESCRIPTION(
/* description */ (''),
/* implementation_level */ '2;1');

FILE_NAME(
/* name */ 
'Q:\\Ric010\\FF7\\FIPlastiCAD\\FIP\\Lavoro\\PVC Fittings\\PVC Fittings
 STEP\\PFV\\PFV114.ipt.stp',
/* time_stamp */ '2013-10-01T14:50:40+02:00',
/* author */ ('bfaro'),
/* organization */ (''),
/* preprocessor_version */ 'ST-DEVELOPER v15.2',
/* originating_system */ 'Autodesk Inventor 2014',
/* authorisation */ '');

FILE_SCHEMA (('AUTOMOTIVE_DESIGN { 1 0 10303 214 3 1 1 }'));
ENDSEC;

DATA;
#10=SHAPE_REPRESENTATION_RELATIONSHIP('SRR','None',#458,#11);
#11=ADVANCED_BREP_SHAPE_REPRESENTATION($,(#261),#449);
#12=LINE($,#423,#24);
#13=LINE($,#425,#25);
#14=LINE($,#426,#26);
#15=LINE($,#429,#27);
#16=LINE($,#430,#28);
#17=LINE($,#433,#29);
#18=LINE($,#434,#30);
#19=LINE($,#437,#31);
#20=LINE($,#438,#32);
#21=LINE($,#441,#33);
#22=LINE($,#442,#34);
#23=LINE($,#444,#35);
#24=VECTOR($,#321,9.01194145520226);
#25=VECTOR($,#322,25.4034118443435);
#26=VECTOR($,#323,9.01194145520225);
#27=VECTOR($,#326,25.4034118443435);
#28=VECTOR($,#327,9.01194145520227);
#29=VECTOR($,#330,25.4034118443435);
#30=VECTOR($,#331,9.01194145520227);
#31=VECTOR($,#334,25.4034118443435);
#32=VECTOR($,#335,9.01194145520227);
#33=VECTOR($,#338,9.01194145520225);
#34=VECTOR($,#339,25.4034118443435);
#35=VECTOR($,#342,25.4034118443436);
#36=SPHERICAL_SURFACE($,#276,54.5);
#37=PLANE($,#275);
#38=PLANE($,#278);
#39=PLANE($,#279);
#40=PLANE($,#280);
#41=PLANE($,#281);
#42=PLANE($,#282);
#43=PLANE($,#283);
#44=PLANE($,#284);
#45=PLANE($,#285);
#46=PLANE($,#286);
#47=TOROIDAL_SURFACE($,#270,22.5009139682635,6.00091396826344);
#48=(
BOUNDED_CURVE()
B_SPLINE_CURVE(2,(#360,#361,#362),.UNSPECIFIED.,.F.,.F.)
B_SPLINE_CURVE_WITH_KNOTS((3,3),(13.9068218392398,26.7740998724368),
 .UNSPECIFIED.)
CURVE()
GEOMETRIC_REPRESENTATION_ITEM()
RATIONAL_B_SPLINE_CURVE((1.,1.04114207866551,1.00615079326375))
REPRESENTATION_ITEM($)
);
#49=(
BOUNDED_CURVE()
B_SPLINE_CURVE(2,(#364,#365,#366),.UNSPECIFIED.,.F.,.F.)
B_SPLINE_CURVE_WITH_KNOTS((3,3),(1.03954380604281,13.9068218392398),
 .UNSPECIFIED.)
CURVE()
GEOMETRIC_REPRESENTATION_ITEM()
RATIONAL_B_SPLINE_CURVE((1.00615079326375,1.04114207866555,1.))
REPRESENTATION_ITEM($)
);
#50=(
BOUNDED_CURVE()
B_SPLINE_CURVE(2,(#368,#369,#370),.UNSPECIFIED.,.F.,.F.)
B_SPLINE_CURVE_WITH_KNOTS((3,3),(13.9068218392399,26.7740998724369),
 .UNSPECIFIED.)
CURVE()
GEOMETRIC_REPRESENTATION_ITEM()
RATIONAL_B_SPLINE_CURVE((1.,1.04114207866553,1.00615079326375))
REPRESENTATION_ITEM($)
);
#51=(
BOUNDED_CURVE()
B_SPLINE_CURVE(2,(#372,#373,#374),.UNSPECIFIED.,.F.,.F.)
B_SPLINE_CURVE_WITH_KNOTS((3,3),(1.03954380604285,13.9068218392399),
 .UNSPECIFIED.)
CURVE()
GEOMETRIC_REPRESENTATION_ITEM()
RATIONAL_B_SPLINE_CURVE((1.00615079326375,1.04114207866554,1.))
REPRESENTATION_ITEM($)
);
#52=(
BOUNDED_CURVE()
B_SPLINE_CURVE(2,(#376,#377,#378),.UNSPECIFIED.,.F.,.F.)
B_SPLINE_CURVE_WITH_KNOTS((3,3),(13.9068218392399,26.7740998724369),
 .UNSPECIFIED.)
CURVE()
GEOMETRIC_REPRESENTATION_ITEM()
RATIONAL_B_SPLINE_CURVE((1.,1.04114207866553,1.00615079326375))
REPRESENTATION_ITEM($)
);
#53=(
BOUNDED_CURVE()
B_SPLINE_CURVE(2,(#380,#381,#382),.UNSPECIFIED.,.F.,.F.)
B_SPLINE_CURVE_WITH_KNOTS((3,3),(1.03954380604281,13.9068218392399),
 .UNSPECIFIED.)
CURVE()
GEOMETRIC_REPRESENTATION_ITEM()
RATIONAL_B_SPLINE_CURVE((1.00615079326376,1.04114207866557,1.))
REPRESENTATION_ITEM($)
);
#54=(
BOUNDED_CURVE()
B_SPLINE_CURVE(2,(#384,#385,#386),.UNSPECIFIED.,.F.,.F.)
B_SPLINE_CURVE_WITH_KNOTS((3,3),(13.9068218392399,26.7740998724369),
 .UNSPECIFIED.)
CURVE()
GEOMETRIC_REPRESENTATION_ITEM()
RATIONAL_B_SPLINE_CURVE((1.,1.04114207866556,1.00615079326375))
REPRESENTATION_ITEM($)
);
#55=(
BOUNDED_CURVE()
B_SPLINE_CURVE(2,(#388,#389,#390),.UNSPECIFIED.,.F.,.F.)
B_SPLINE_CURVE_WITH_KNOTS((3,3),(1.03954380604289,13.9068218392399),
 .UNSPECIFIED.)
CURVE()
GEOMETRIC_REPRESENTATION_ITEM()
RATIONAL_B_SPLINE_CURVE((1.00615079326375,1.04114207866554,1.))
REPRESENTATION_ITEM($)
);
#56=(
BOUNDED_CURVE()
B_SPLINE_CURVE(2,(#392,#393,#394),.UNSPECIFIED.,.F.,.F.)
B_SPLINE_CURVE_WITH_KNOTS((3,3),(13.9068218392399,26.7740998724369),
 .UNSPECIFIED.)
CURVE()
GEOMETRIC_REPRESENTATION_ITEM()
RATIONAL_B_SPLINE_CURVE((1.,1.04114207866555,1.00615079326375))
REPRESENTATION_ITEM($)
);
#57=(
BOUNDED_CURVE()
B_SPLINE_CURVE(2,(#396,#397,#398),.UNSPECIFIED.,.F.,.F.)
B_SPLINE_CURVE_WITH_KNOTS((3,3),(1.03954380604286,13.9068218392399),
 .UNSPECIFIED.)
CURVE()
GEOMETRIC_REPRESENTATION_ITEM()
RATIONAL_B_SPLINE_CURVE((1.00615079326375,1.04114207866553,1.))
REPRESENTATION_ITEM($)
);
#58=(
BOUNDED_CURVE()
B_SPLINE_CURVE(2,(#400,#401,#402),.UNSPECIFIED.,.F.,.F.)
B_SPLINE_CURVE_WITH_KNOTS((3,3),(13.9068218392398,26.7740998724368),
 .UNSPECIFIED.)
CURVE()
GEOMETRIC_REPRESENTATION_ITEM()
RATIONAL_B_SPLINE_CURVE((1.,1.04114207866553,1.00615079326375))
REPRESENTATION_ITEM($)
);
#59=(
BOUNDED_CURVE()
B_SPLINE_CURVE(2,(#403,#404,#405),.UNSPECIFIED.,.F.,.F.)
B_SPLINE_CURVE_WITH_KNOTS((3,3),(1.03954380604284,13.9068218392398),
 .UNSPECIFIED.)
CURVE()
GEOMETRIC_REPRESENTATION_ITEM()
RATIONAL_B_SPLINE_CURVE((1.00615079326375,1.04114207866552,1.))
REPRESENTATION_ITEM($)
);
#60=CONICAL_SURFACE($,#266,24.,75.0000000000003);
#61=CONICAL_SURFACE($,#273,16.2786948450502,1.00000000000029);
#62=FACE_BOUND($,#87,.T.);
#63=FACE_BOUND($,#89,.T.);
#64=FACE_BOUND($,#91,.T.);
#65=FACE_BOUND($,#93,.T.);
#66=FACE_BOUND($,#95,.T.);
#67=FACE_BOUND($,#97,.T.);
#68=FACE_BOUND($,#106,.T.);
#69=FACE_BOUND($,#109,.T.);
#70=FACE_OUTER_BOUND($,#86,.T.);
#71=FACE_OUTER_BOUND($,#88,.T.);
#72=FACE_OUTER_BOUND($,#90,.T.);
#73=FACE_OUTER_BOUND($,#92,.T.);
#74=FACE_OUTER_BOUND($,#94,.T.);
#75=FACE_OUTER_BOUND($,#96,.T.);
#76=FACE_OUTER_BOUND($,#98,.T.);
#77=FACE_OUTER_BOUND($,#99,.T.);
#78=FACE_OUTER_BOUND($,#100,.T.);
#79=FACE_OUTER_BOUND($,#101,.T.);
#80=FACE_OUTER_BOUND($,#102,.T.);
#81=FACE_OUTER_BOUND($,#103,.T.);
#82=FACE_OUTER_BOUND($,#104,.T.);
#83=FACE_OUTER_BOUND($,#105,.T.);
#84=FACE_OUTER_BOUND($,#107,.T.);
#85=FACE_OUTER_BOUND($,#108,.T.);
#86=EDGE_LOOP($,(#176));
#87=EDGE_LOOP($,(#177));
#88=EDGE_LOOP($,(#178));
#89=EDGE_LOOP($,(#179,#180,#181,#182,#183,#184,#185,#186,#187,#188,#189,
#190));
#90=EDGE_LOOP($,(#191));
#91=EDGE_LOOP($,(#192));
#92=EDGE_LOOP($,(#193));
#93=EDGE_LOOP($,(#194));
#94=EDGE_LOOP($,(#195));
#95=EDGE_LOOP($,(#196));
#96=EDGE_LOOP($,(#197));
#97=EDGE_LOOP($,(#198));
#98=EDGE_LOOP($,(#199));
#99=EDGE_LOOP($,(#200,#201,#202,#203,#204));
#100=EDGE_LOOP($,(#205,#206,#207,#208,#209));
#101=EDGE_LOOP($,(#210,#211,#212,#213,#214));
#102=EDGE_LOOP($,(#215,#216,#217,#218,#219));
#103=EDGE_LOOP($,(#220,#221,#222,#223,#224));
#104=EDGE_LOOP($,(#225,#226,#227,#228,#229));
#105=EDGE_LOOP($,(#230,#231,#232,#233,#234,#235));
#106=EDGE_LOOP($,(#236));
#107=EDGE_LOOP($,(#237));
#108=EDGE_LOOP($,(#238));
#109=EDGE_LOOP($,(#239));
#110=CIRCLE($,#264,20.95);
#111=CIRCLE($,#265,20.95);
#112=CIRCLE($,#267,26.);
#113=CIRCLE($,#269,26.);
#114=CIRCLE($,#271,16.5036555946504);
#115=CIRCLE($,#272,17.7764067500978);
#116=CIRCLE($,#274,16.1404256624787);
#117=CIRCLE($,#277,21.6852484422016);
#118=VERTEX_POINT($,#351);
#119=VERTEX_POINT($,#353);
#120=VERTEX_POINT($,#356);
#121=VERTEX_POINT($,#358);
#122=VERTEX_POINT($,#359);
#123=VERTEX_POINT($,#363);
#124=VERTEX_POINT($,#367);
#125=VERTEX_POINT($,#371);
#126=VERTEX_POINT($,#375);
#127=VERTEX_POINT($,#379);
#128=VERTEX_POINT($,#383);
#129=VERTEX_POINT($,#387);
#130=VERTEX_POINT($,#391);
#131=VERTEX_POINT($,#395);
#132=VERTEX_POINT($,#399);
#133=VERTEX_POINT($,#407);
#134=VERTEX_POINT($,#410);
#135=VERTEX_POINT($,#412);
#136=VERTEX_POINT($,#415);
#137=VERTEX_POINT($,#419);
#138=VERTEX_POINT($,#422);
#139=VERTEX_POINT($,#424);
#140=VERTEX_POINT($,#428);
#141=VERTEX_POINT($,#432);
#142=VERTEX_POINT($,#436);
#143=VERTEX_POINT($,#440);
#144=EDGE_CURVE($,#118,#118,#110,.T.);
#145=EDGE_CURVE($,#119,#119,#111,.T.);
#146=EDGE_CURVE($,#120,#120,#112,.T.);
#147=EDGE_CURVE($,#121,#122,#48,.T.);
#148=EDGE_CURVE($,#123,#121,#49,.T.);
#149=EDGE_CURVE($,#124,#123,#50,.T.);
#150=EDGE_CURVE($,#125,#124,#51,.T.);
#151=EDGE_CURVE($,#126,#125,#52,.T.);
#152=EDGE_CURVE($,#127,#126,#53,.T.);
#153=EDGE_CURVE($,#128,#127,#54,.T.);
#154=EDGE_CURVE($,#129,#128,#55,.T.);
#155=EDGE_CURVE($,#130,#129,#56,.T.);
#156=EDGE_CURVE($,#131,#130,#57,.T.);
#157=EDGE_CURVE($,#132,#131,#58,.T.);
#158=EDGE_CURVE($,#122,#132,#59,.T.);
#159=EDGE_CURVE($,#133,#133,#113,.T.);
#160=EDGE_CURVE($,#134,#134,#114,.T.);
#161=EDGE_CURVE($,#135,#135,#115,.T.);
#162=EDGE_CURVE($,#136,#136,#116,.T.);
#163=EDGE_CURVE($,#137,#137,#117,.T.);
#164=EDGE_CURVE($,#127,#138,#12,.T.);
#165=EDGE_CURVE($,#138,#139,#13,.T.);
#166=EDGE_CURVE($,#129,#139,#14,.T.);
#167=EDGE_CURVE($,#139,#140,#15,.T.);
#168=EDGE_CURVE($,#131,#140,#16,.T.);
#169=EDGE_CURVE($,#140,#141,#17,.T.);
#170=EDGE_CURVE($,#122,#141,#18,.T.);
#171=EDGE_CURVE($,#141,#142,#19,.T.);
#172=EDGE_CURVE($,#123,#142,#20,.T.);
#173=EDGE_CURVE($,#125,#143,#21,.T.);
#174=EDGE_CURVE($,#143,#138,#22,.T.);
#175=EDGE_CURVE($,#142,#143,#23,.T.);
#176=ORIENTED_EDGE($,*,*,#144,.T.);
#177=ORIENTED_EDGE($,*,*,#145,.F.);
#178=ORIENTED_EDGE($,*,*,#146,.T.);
#179=ORIENTED_EDGE($,*,*,#147,.F.);
#180=ORIENTED_EDGE($,*,*,#148,.F.);
#181=ORIENTED_EDGE($,*,*,#149,.F.);
#182=ORIENTED_EDGE($,*,*,#150,.F.);
#183=ORIENTED_EDGE($,*,*,#151,.F.);
#184=ORIENTED_EDGE($,*,*,#152,.F.);
#185=ORIENTED_EDGE($,*,*,#153,.F.);
#186=ORIENTED_EDGE($,*,*,#154,.F.);
#187=ORIENTED_EDGE($,*,*,#155,.F.);
#188=ORIENTED_EDGE($,*,*,#156,.F.);
#189=ORIENTED_EDGE($,*,*,#157,.F.);
#190=ORIENTED_EDGE($,*,*,#158,.F.);
#191=ORIENTED_EDGE($,*,*,#159,.T.);
#192=ORIENTED_EDGE($,*,*,#146,.F.);
#193=ORIENTED_EDGE($,*,*,#160,.T.);
#194=ORIENTED_EDGE($,*,*,#161,.T.);
#195=ORIENTED_EDGE($,*,*,#160,.F.);
#196=ORIENTED_EDGE($,*,*,#162,.F.);
#197=ORIENTED_EDGE($,*,*,#159,.F.);
#198=ORIENTED_EDGE($,*,*,#144,.F.);
#199=ORIENTED_EDGE($,*,*,#163,.F.);
#200=ORIENTED_EDGE($,*,*,#154,.T.);
#201=ORIENTED_EDGE($,*,*,#153,.T.);
#202=ORIENTED_EDGE($,*,*,#164,.T.);
#203=ORIENTED_EDGE($,*,*,#165,.T.);
#204=ORIENTED_EDGE($,*,*,#166,.F.);
#205=ORIENTED_EDGE($,*,*,#156,.T.);
#206=ORIENTED_EDGE($,*,*,#155,.T.);
#207=ORIENTED_EDGE($,*,*,#166,.T.);
#208=ORIENTED_EDGE($,*,*,#167,.T.);
#209=ORIENTED_EDGE($,*,*,#168,.F.);
#210=ORIENTED_EDGE($,*,*,#158,.T.);
#211=ORIENTED_EDGE($,*,*,#157,.T.);
#212=ORIENTED_EDGE($,*,*,#168,.T.);
#213=ORIENTED_EDGE($,*,*,#169,.T.);
#214=ORIENTED_EDGE($,*,*,#170,.F.);
#215=ORIENTED_EDGE($,*,*,#148,.T.);
#216=ORIENTED_EDGE($,*,*,#147,.T.);
#217=ORIENTED_EDGE($,*,*,#170,.T.);
#218=ORIENTED_EDGE($,*,*,#171,.T.);
#219=ORIENTED_EDGE($,*,*,#172,.F.);
#220=ORIENTED_EDGE($,*,*,#152,.T.);
#221=ORIENTED_EDGE($,*,*,#151,.T.);
#222=ORIENTED_EDGE($,*,*,#173,.T.);
#223=ORIENTED_EDGE($,*,*,#174,.T.);
#224=ORIENTED_EDGE($,*,*,#164,.F.);
#225=ORIENTED_EDGE($,*,*,#150,.T.);
#226=ORIENTED_EDGE($,*,*,#149,.T.);
#227=ORIENTED_EDGE($,*,*,#172,.T.);
#228=ORIENTED_EDGE($,*,*,#175,.T.);
#229=ORIENTED_EDGE($,*,*,#173,.F.);
#230=ORIENTED_EDGE($,*,*,#167,.F.);
#231=ORIENTED_EDGE($,*,*,#165,.F.);
#232=ORIENTED_EDGE($,*,*,#174,.F.);
#233=ORIENTED_EDGE($,*,*,#175,.F.);
#234=ORIENTED_EDGE($,*,*,#171,.F.);
#235=ORIENTED_EDGE($,*,*,#169,.F.);
#236=ORIENTED_EDGE($,*,*,#163,.T.);
#237=ORIENTED_EDGE($,*,*,#162,.T.);
#238=ORIENTED_EDGE($,*,*,#145,.T.);
#239=ORIENTED_EDGE($,*,*,#161,.F.);
#240=CYLINDRICAL_SURFACE($,#263,20.95);
#241=CYLINDRICAL_SURFACE($,#268,26.);
#242=STYLED_ITEM($,(#467),#244);
#243=STYLED_ITEM($,(#466),#261);
#244=ADVANCED_FACE($,(#70,#62),#240,.T.);
#245=ADVANCED_FACE($,(#71,#63),#60,.T.);
#246=ADVANCED_FACE($,(#72,#64),#241,.T.);
#247=ADVANCED_FACE($,(#73,#65),#47,.T.);
#248=ADVANCED_FACE($,(#74,#66),#61,.F.);
#249=ADVANCED_FACE($,(#75,#67),#37,.T.);
#250=ADVANCED_FACE($,(#76),#36,.T.);
#251=ADVANCED_FACE($,(#77),#38,.T.);
#252=ADVANCED_FACE($,(#78),#39,.T.);
#253=ADVANCED_FACE($,(#79),#40,.T.);
#254=ADVANCED_FACE($,(#80),#41,.T.);
#255=ADVANCED_FACE($,(#81),#42,.T.);
#256=ADVANCED_FACE($,(#82),#43,.T.);
#257=ADVANCED_FACE($,(#83,#68),#44,.T.);
#258=ADVANCED_FACE($,(#84),#45,.F.);
#259=ADVANCED_FACE($,(#85,#69),#46,.T.);
#260=CLOSED_SHELL($,(#244,#245,#246,#247,#248,#249,#250,#251,#252,#253,
#254,#255,#256,#257,#258,#259));
#261=MANIFOLD_SOLID_BREP('791',#260);
#262=AXIS2_PLACEMENT_3D('placement',#349,#287,#288);
#263=AXIS2_PLACEMENT_3D($,#350,#289,#290);
#264=AXIS2_PLACEMENT_3D($,#352,#291,#292);
#265=AXIS2_PLACEMENT_3D($,#354,#293,#294);
#266=AXIS2_PLACEMENT_3D($,#355,#295,#296);
#267=AXIS2_PLACEMENT_3D($,#357,#297,#298);
#268=AXIS2_PLACEMENT_3D($,#406,#299,#300);
#269=AXIS2_PLACEMENT_3D($,#408,#301,#302);
#270=AXIS2_PLACEMENT_3D($,#409,#303,#304);
#271=AXIS2_PLACEMENT_3D($,#411,#305,#306);
#272=AXIS2_PLACEMENT_3D($,#413,#307,#308);
#273=AXIS2_PLACEMENT_3D($,#414,#309,#310);
#274=AXIS2_PLACEMENT_3D($,#416,#311,#312);
#275=AXIS2_PLACEMENT_3D($,#417,#313,#314);
#276=AXIS2_PLACEMENT_3D($,#418,#315,#316);
#277=AXIS2_PLACEMENT_3D($,#420,#317,#318);
#278=AXIS2_PLACEMENT_3D($,#421,#319,#320);
#279=AXIS2_PLACEMENT_3D($,#427,#324,#325);
#280=AXIS2_PLACEMENT_3D($,#431,#328,#329);
#281=AXIS2_PLACEMENT_3D($,#435,#332,#333);
#282=AXIS2_PLACEMENT_3D($,#439,#336,#337);
#283=AXIS2_PLACEMENT_3D($,#443,#340,#341);
#284=AXIS2_PLACEMENT_3D($,#445,#343,#344);
#285=AXIS2_PLACEMENT_3D($,#446,#345,#346);
#286=AXIS2_PLACEMENT_3D($,#447,#347,#348);
#287=DIRECTION('axis',(0.,0.,1.));
#288=DIRECTION('refdir',(1.,0.,0.));
#289=DIRECTION('center_axis',(-1.,1.224606E-016,0.));
#290=DIRECTION('ref_axis',(1.224606E-016,1.,0.));
#291=DIRECTION('center_axis',(-1.,0.,0.));
#292=DIRECTION('ref_axis',(0.,1.,0.));
#293=DIRECTION('center_axis',(-1.,0.,0.));
#294=DIRECTION('ref_axis',(0.,1.,0.));
#295=DIRECTION('center_axis',(-1.,1.83691E-016,0.));
#296=DIRECTION('ref_axis',(1.83691E-016,1.,0.));
#297=DIRECTION('center_axis',(1.,0.,0.));
#298=DIRECTION('ref_axis',(0.,1.,0.));
#299=DIRECTION('center_axis',(1.,-1.83691E-016,0.));
#300=DIRECTION('ref_axis',(1.83691E-016,1.,0.));
#301=DIRECTION('center_axis',(1.,0.,0.));
#302=DIRECTION('ref_axis',(0.,1.,0.));
#303=DIRECTION('center_axis',(1.,-1.83691E-016,0.));
#304=DIRECTION('ref_axis',(0.,0.,1.));
#305=DIRECTION('center_axis',(1.,0.,0.));
#306=DIRECTION('ref_axis',(0.,1.,0.));
#307=DIRECTION('center_axis',(-1.,0.,0.));
#308=DIRECTION('ref_axis',(0.,1.,0.));
#309=DIRECTION('center_axis',(-1.,1.83691E-016,0.));
#310=DIRECTION('ref_axis',(1.83691E-016,1.,0.));
#311=DIRECTION('center_axis',(-1.,0.,0.));
#312=DIRECTION('ref_axis',(0.,1.,0.));
#313=DIRECTION('center_axis',(-1.,0.,0.));
#314=DIRECTION('ref_axis',(0.,0.,-1.));
#315=DIRECTION('center_axis',(0.,-6.12323399573677E-017,1.));
#316=DIRECTION('ref_axis',(0.,-1.,0.));
#317=DIRECTION('center_axis',(-1.,0.,0.));
#318=DIRECTION('ref_axis',(0.,0.,1.));
#319=DIRECTION('center_axis',(0.,0.866025403784438,-0.500000000000001));
#320=DIRECTION('ref_axis',(-1.,0.,0.));
#321=DIRECTION($,(1.,0.,0.));
#322=DIRECTION($,(0.,-0.500000000000001,-0.866025403784438));
#323=DIRECTION($,(1.,0.,0.));
#324=DIRECTION('center_axis',(0.,0.,-1.));
#325=DIRECTION('ref_axis',(-1.,0.,0.));
#326=DIRECTION($,(0.,-1.,0.));
#327=DIRECTION($,(1.,0.,0.));
#328=DIRECTION('center_axis',(0.,-0.866025403784439,-0.5));
#329=DIRECTION('ref_axis',(0.,0.500000000000001,-0.866025403784438));
#330=DIRECTION($,(0.,-0.5,0.866025403784439));
#331=DIRECTION($,(1.,0.,0.));
#332=DIRECTION('center_axis',(0.,-0.866025403784438,0.500000000000001));
#333=DIRECTION('ref_axis',(1.,0.,0.));
#334=DIRECTION($,(0.,0.500000000000001,0.866025403784438));
#335=DIRECTION($,(1.,0.,0.));
#336=DIRECTION('center_axis',(0.,0.866025403784439,0.499999999999999));
#337=DIRECTION('ref_axis',(0.,-0.499999999999999,0.866025403784439));
#338=DIRECTION($,(1.,0.,0.));
#339=DIRECTION($,(0.,0.499999999999999,-0.866025403784439));
#340=DIRECTION('center_axis',(0.,0.,1.));
#341=DIRECTION('ref_axis',(1.,0.,0.));
#342=DIRECTION($,(0.,1.,0.));
#343=DIRECTION('center_axis',(1.,0.,0.));
#344=DIRECTION('ref_axis',(0.,0.,-1.));
#345=DIRECTION('center_axis',(1.,0.,0.));
#346=DIRECTION('ref_axis',(0.,0.,-1.));
#347=DIRECTION('center_axis',(-1.,0.,0.));
#348=DIRECTION('ref_axis',(0.,0.,1.));
#349=CARTESIAN_POINT('',(0.,0.,0.));
#350=CARTESIAN_POINT('Origin',(10.7,-1.310329E-015,0.));
#351=CARTESIAN_POINT('',(21.4,-20.95,2.56555E-015));
#352=CARTESIAN_POINT('Origin',(21.4,-2.620658E-015,0.));
#353=CARTESIAN_POINT('',(-1.776357E-015,-20.95,2.56555E-015));
#354=CARTESIAN_POINT('Origin',(6.998148E-016,-2.625964E-031,0.));
#355=CARTESIAN_POINT('Origin',(24.8641016151378,0.,0.));
#356=CARTESIAN_POINT('',(24.3282032302756,-26.,-3.183977E-015));
#357=CARTESIAN_POINT('Origin',(24.3282032302756,0.,0.));
#358=CARTESIAN_POINT('',(25.4,-19.0525588832576,11.));
#359=CARTESIAN_POINT('',(24.4880585447977,-25.4034118443435,9.769963E-015));
#360=CARTESIAN_POINT('Ctrl Pts',(25.4,-19.0525588832576,11.));
#361=CARTESIAN_POINT('Ctrl Pts',(25.4000000000001,-21.9999999999999,5.89488223348482));
#362=CARTESIAN_POINT('Ctrl Pts',(24.4880585447977,-25.4034118443435,9.769963E-015));
#363=CARTESIAN_POINT('',(24.4880585447977,-12.7017059221718,22.));
#364=CARTESIAN_POINT('Ctrl Pts',(24.4880585447977,-12.7017059221718,22.));
#365=CARTESIAN_POINT('Ctrl Pts',(25.4000000000001,-16.1051177665153,16.1051177665152));
#366=CARTESIAN_POINT('Ctrl Pts',(25.4,-19.0525588832576,11.));
#367=CARTESIAN_POINT('',(25.4,1.865175E-014,22.));
#368=CARTESIAN_POINT('Ctrl Pts',(25.4,1.865175E-014,22.));
#369=CARTESIAN_POINT('Ctrl Pts',(25.4000000000001,-5.89488223348457,22.));
#370=CARTESIAN_POINT('Ctrl Pts',(24.4880585447977,-12.7017059221718,22.));
#371=CARTESIAN_POINT('',(24.4880585447977,12.7017059221718,22.));
#372=CARTESIAN_POINT('Ctrl Pts',(24.4880585447977,12.7017059221718,22.));
#373=CARTESIAN_POINT('Ctrl Pts',(25.4000000000001,5.89488223348467,22.));
#374=CARTESIAN_POINT('Ctrl Pts',(25.4,1.865175E-014,22.));
#375=CARTESIAN_POINT('',(25.4,19.0525588832577,11.));
#376=CARTESIAN_POINT('Ctrl Pts',(25.4,19.0525588832577,11.));
#377=CARTESIAN_POINT('Ctrl Pts',(25.4000000000001,16.1051177665154,16.1051177665152));
#378=CARTESIAN_POINT('Ctrl Pts',(24.4880585447977,12.7017059221718,22.));
#379=CARTESIAN_POINT('',(24.4880585447977,25.4034118443435,-2.209344E-014));
#380=CARTESIAN_POINT('Ctrl Pts',(24.4880585447977,25.4034118443435,-2.209344E-014));
#381=CARTESIAN_POINT('Ctrl Pts',(25.4000000000001,22.,5.89488223348475));
#382=CARTESIAN_POINT('Ctrl Pts',(25.4,19.0525588832577,11.));
#383=CARTESIAN_POINT('',(25.4,19.0525588832576,-11.));
#384=CARTESIAN_POINT('Ctrl Pts',(25.4,19.0525588832576,-11.));
#385=CARTESIAN_POINT('Ctrl Pts',(25.4000000000001,22.,-5.89488223348475));
#386=CARTESIAN_POINT('Ctrl Pts',(24.4880585447977,25.4034118443435,-2.209344E-014));
#387=CARTESIAN_POINT('',(24.4880585447977,12.7017059221718,-22.));
#388=CARTESIAN_POINT('Ctrl Pts',(24.4880585447977,12.7017059221718,-22.));
#389=CARTESIAN_POINT('Ctrl Pts',(25.4000000000001,16.1051177665153,-16.1051177665153));
#390=CARTESIAN_POINT('Ctrl Pts',(25.4,19.0525588832576,-11.));
#391=CARTESIAN_POINT('',(25.4,-1.24345E-014,-22.));
#392=CARTESIAN_POINT('Ctrl Pts',(25.4,-1.24345E-014,-22.));
#393=CARTESIAN_POINT('Ctrl Pts',(25.4000000000001,5.89488223348463,-22.));
#394=CARTESIAN_POINT('Ctrl Pts',(24.4880585447977,12.7017059221718,-22.));
#395=CARTESIAN_POINT('',(24.4880585447977,-12.7017059221718,-22.));
#396=CARTESIAN_POINT('Ctrl Pts',(24.4880585447977,-12.7017059221718,-22.));
#397=CARTESIAN_POINT('Ctrl Pts',(25.4000000000001,-5.8948822334846,-22.));
#398=CARTESIAN_POINT('Ctrl Pts',(25.4,-1.24345E-014,-22.));
#399=CARTESIAN_POINT('',(25.4,-19.0525588832577,-11.));
#400=CARTESIAN_POINT('Ctrl Pts',(25.4,-19.0525588832577,-11.));
#401=CARTESIAN_POINT('Ctrl Pts',(25.4000000000001,-16.1051177665154,-16.1051177665152));
#402=CARTESIAN_POINT('Ctrl Pts',(24.4880585447977,-12.7017059221718,-22.));
#403=CARTESIAN_POINT('Ctrl Pts',(24.4880585447977,-25.4034118443435,9.769963E-015));
#404=CARTESIAN_POINT('Ctrl Pts',(25.4,-22.,-5.89488223348471));
#405=CARTESIAN_POINT('Ctrl Pts',(25.4,-19.0525588832577,-11.));
#406=CARTESIAN_POINT('Origin',(22.8641016151378,0.,0.));
#407=CARTESIAN_POINT('',(21.4,-26.,-3.183977E-015));
#408=CARTESIAN_POINT('Origin',(21.4,0.,0.));
#409=CARTESIAN_POINT('Origin',(3.70000000000005,0.,0.));
#410=CARTESIAN_POINT('',(3.49057112274802,-16.5036555946504,-2.021048E-015));
#411=CARTESIAN_POINT('Origin',(3.49057112274802,0.,0.));
#412=CARTESIAN_POINT('',(3.265365E-015,17.7764067500978,0.));
#413=CARTESIAN_POINT('Origin',(1.088455E-015,-3.101896E-031,0.));
#414=CARTESIAN_POINT('Origin',(16.3785638357654,0.,0.));
#415=CARTESIAN_POINT('',(24.3,-16.1404256624787,1.976567E-015));
#416=CARTESIAN_POINT('Origin',(24.3,-1.455096E-015,0.));
#417=CARTESIAN_POINT('Origin',(21.4,23.675,0.));
#418=CARTESIAN_POINT('Origin',(-16.5,-1.421085E-014,0.));
#419=CARTESIAN_POINT('',(33.5,21.6852484422016,0.));
#420=CARTESIAN_POINT('Origin',(33.5,-1.421085E-014,0.));
#421=CARTESIAN_POINT('Origin',(24.3,25.4034118443435,-2.209344E-014));
#422=CARTESIAN_POINT('',(33.5,25.4034118443435,-2.209344E-014));
#423=CARTESIAN_POINT($,(24.4880585447977,25.4034118443435,-2.209344E-014));
#424=CARTESIAN_POINT('',(33.5,12.7017059221718,-22.));
#425=CARTESIAN_POINT($,(33.5,25.4034118443435,-2.209344E-014));
#426=CARTESIAN_POINT($,(24.4880585447977,12.7017059221718,-22.));
#427=CARTESIAN_POINT('Origin',(24.3,12.7017059221718,-22.));
#428=CARTESIAN_POINT('',(33.5,-12.7017059221718,-22.));
#429=CARTESIAN_POINT($,(33.5,12.7017059221718,-22.));
#430=CARTESIAN_POINT($,(24.4880585447977,-12.7017059221718,-22.));
#431=CARTESIAN_POINT('Origin',(24.3,-12.7017059221718,-22.));
#432=CARTESIAN_POINT('',(33.5,-25.4034118443435,9.769963E-015));
#433=CARTESIAN_POINT($,(33.5,-12.7017059221718,-22.));
#434=CARTESIAN_POINT($,(24.4880585447977,-25.4034118443435,9.769963E-015));
#435=CARTESIAN_POINT('Origin',(24.3,-25.4034118443435,9.769963E-015));
#436=CARTESIAN_POINT('',(33.5,-12.7017059221718,22.));
#437=CARTESIAN_POINT($,(33.5,-25.4034118443435,9.769963E-015));
#438=CARTESIAN_POINT($,(24.4880585447977,-12.7017059221718,22.));
#439=CARTESIAN_POINT('Origin',(24.3,12.7017059221718,22.));
#440=CARTESIAN_POINT('',(33.5,12.7017059221718,22.));
#441=CARTESIAN_POINT($,(24.4880585447977,12.7017059221718,22.));
#442=CARTESIAN_POINT($,(33.5,12.7017059221718,22.));
#443=CARTESIAN_POINT('Origin',(24.3,-12.7017059221718,22.));
#444=CARTESIAN_POINT($,(33.5,-12.7017059221718,22.));
#445=CARTESIAN_POINT('Origin',(33.5,0.,3.108624E-015));
#446=CARTESIAN_POINT('Origin',(24.3,0.,3.108624E-015));
#447=CARTESIAN_POINT('Origin',(3.265365E-015,19.3632033750489,0.));
#448=UNCERTAINTY_MEASURE_WITH_UNIT(LENGTH_MEASURE(0.01),#450,
'DISTANCE_ACCURACY_VALUE',
'Maximum model space distance between geometric entities at asserted c
onnectivities');
#449=(
GEOMETRIC_REPRESENTATION_CONTEXT(3)
GLOBAL_UNCERTAINTY_ASSIGNED_CONTEXT((#448))
GLOBAL_UNIT_ASSIGNED_CONTEXT((#450,#453,#451))
REPRESENTATION_CONTEXT('','3D')
);
#450=(
LENGTH_UNIT()
NAMED_UNIT(*)
SI_UNIT(.MILLI.,.METRE.)
);
#451=(
NAMED_UNIT(*)
SI_UNIT($,.STERADIAN.)
SOLID_ANGLE_UNIT()
);
#452=DIMENSIONAL_EXPONENTS(0.,0.,0.,0.,0.,0.,0.);
#453=(
CONVERSION_BASED_UNIT('degree',#455)
NAMED_UNIT(#452)
PLANE_ANGLE_UNIT()
);
#454=(
NAMED_UNIT(*)
PLANE_ANGLE_UNIT()
SI_UNIT($,.RADIAN.)
);
#455=PLANE_ANGLE_MEASURE_WITH_UNIT(PLANE_ANGLE_MEASURE(0.01745329252),#454);
#456=SHAPE_DEFINITION_REPRESENTATION(#457,#458);
#457=PRODUCT_DEFINITION_SHAPE('',$,#460);
#458=SHAPE_REPRESENTATION('',(#262),#449);
#459=PRODUCT_DEFINITION_CONTEXT('3D Mechanical Parts',#463,'design');
#460=PRODUCT_DEFINITION('PFV114','PFV114',#461,#459);
#461=PRODUCT_DEFINITION_FORMATION('',$,#465);
#462=APPLICATION_PROTOCOL_DEFINITION('international standard',
'automotive_design',2009,#463);
#463=APPLICATION_CONTEXT(
'Core Data for Automotive Mechanical Design Process');
#464=PRODUCT_CONTEXT('3D Mechanical Parts',#463,'mechanical');
#465=PRODUCT('PFV114','PFV114',$,(#464));
#466=PRESENTATION_STYLE_ASSIGNMENT((#468));
#467=PRESENTATION_STYLE_ASSIGNMENT((#469));
#468=SURFACE_STYLE_USAGE(.BOTH.,#470);
#469=SURFACE_STYLE_USAGE(.BOTH.,#471);
#470=SURFACE_SIDE_STYLE($,(#472));
#471=SURFACE_SIDE_STYLE($,(#473));
#472=SURFACE_STYLE_FILL_AREA(#474);
#473=SURFACE_STYLE_FILL_AREA(#475);
#474=FILL_AREA_STYLE($,(#476));
#475=FILL_AREA_STYLE($,(#477));
#476=FILL_AREA_STYLE_COLOUR($,#478);
#477=FILL_AREA_STYLE_COLOUR($,#479);
#478=COLOUR_RGB('',0.509803921568627,0.509803921568627,0.588235294117647);
#479=COLOUR_RGB('',1.,0.,0.);
ENDSEC;
END-ISO-10303-21;
