ISO-10303-21;
HEADER;
FILE_DESCRIPTION( ( '' ), '1' );
FILE_NAME( '//se01002/users/anro/AGRU_70712011017_PE_100-RC_schwarz_Rohr_12m_110X6_6__SDR17__ISO_S-8_05.stp', '2017-12-12T08:10:47', ( '' ), ( '' ), ' ', ' ', ' ' );
FILE_SCHEMA( ( 'automotive_design' ) );
ENDSEC;
DATA;
#1 = MECHANICAL_DESIGN_GEOMETRIC_PRESENTATION_REPRESENTATION( ' ', ( #10, #11, #12, #13, #14, #15, #16, #17, #18, #19, #20, #21, #22, #23, #24, #25, #26, #27, #28, #29, #30, #31, #32, #33, #34, #35, #36 ), #6 );
#2 = PRODUCT_DEFINITION_CONTEXT( '', #37, 'design' );
#3 = APPLICATION_PROTOCOL_DEFINITION( 'INTERNATIONAL STANDARD', 'automotive_design', 1994, #37 );
#4 = PRODUCT_CATEGORY_RELATIONSHIP( 'NONE', 'NONE', #38, #39 );
#5 = SHAPE_DEFINITION_REPRESENTATION( #40, #41 );
#6 =  ( GEOMETRIC_REPRESENTATION_CONTEXT( 3 )GLOBAL_UNCERTAINTY_ASSIGNED_CONTEXT( ( #44 ) )GLOBAL_UNIT_ASSIGNED_CONTEXT( ( #46, #47, #48 ) )REPRESENTATION_CONTEXT( 'NONE', 'WORKSPACE' ) );
#10 = STYLED_ITEM( '', ( #50 ), #51 );
#11 = STYLED_ITEM( '', ( #52 ), #53 );
#12 = STYLED_ITEM( '', ( #54 ), #55 );
#13 = STYLED_ITEM( '', ( #56 ), #57 );
#14 = STYLED_ITEM( '', ( #58 ), #59 );
#15 = STYLED_ITEM( '', ( #60 ), #61 );
#16 = STYLED_ITEM( '', ( #62 ), #63 );
#17 = STYLED_ITEM( '', ( #64 ), #65 );
#18 = STYLED_ITEM( '', ( #66 ), #67 );
#19 = STYLED_ITEM( '', ( #68 ), #69 );
#20 = STYLED_ITEM( '', ( #70 ), #71 );
#21 = STYLED_ITEM( '', ( #72 ), #73 );
#22 = STYLED_ITEM( '', ( #74 ), #75 );
#23 = STYLED_ITEM( '', ( #76 ), #77 );
#24 = STYLED_ITEM( '', ( #78 ), #79 );
#25 = STYLED_ITEM( '', ( #80 ), #81 );
#26 = STYLED_ITEM( '', ( #82 ), #83 );
#27 = STYLED_ITEM( '', ( #84 ), #85 );
#28 = STYLED_ITEM( '', ( #86 ), #87 );
#29 = STYLED_ITEM( '', ( #88 ), #89 );
#30 = STYLED_ITEM( '', ( #90 ), #91 );
#31 = STYLED_ITEM( '', ( #92 ), #93 );
#32 = STYLED_ITEM( '', ( #94 ), #95 );
#33 = STYLED_ITEM( '', ( #96 ), #97 );
#34 = STYLED_ITEM( '', ( #98 ), #99 );
#35 = STYLED_ITEM( '', ( #100 ), #101 );
#36 = STYLED_ITEM( '', ( #102 ), #103 );
#37 = APPLICATION_CONTEXT( ' ' );
#38 = PRODUCT_CATEGORY( 'part', 'NONE' );
#39 = PRODUCT_RELATED_PRODUCT_CATEGORY( 'detail', ' ', ( #104 ) );
#40 = PRODUCT_DEFINITION_SHAPE( 'NONE', 'NONE', #105 );
#41 = ADVANCED_BREP_SHAPE_REPRESENTATION( '1', ( #81, #106 ), #6 );
#44 = UNCERTAINTY_MEASURE_WITH_UNIT( LENGTH_MEASURE( 1.00000000000000E-006 ), #46, '', '' );
#46 =  ( CONVERSION_BASED_UNIT( 'MILLIMETRE', #109 )LENGTH_UNIT(  )NAMED_UNIT( #112 ) );
#47 =  ( NAMED_UNIT( #114 )PLANE_ANGLE_UNIT(  )SI_UNIT( $, .RADIAN. ) );
#48 =  ( NAMED_UNIT( #114 )SOLID_ANGLE_UNIT(  )SI_UNIT( $, .STERADIAN. ) );
#50 = PRESENTATION_STYLE_ASSIGNMENT( ( #120 ) );
#51 = VERTEX_POINT( '', #121 );
#52 = PRESENTATION_STYLE_ASSIGNMENT( ( #122 ) );
#53 = VERTEX_POINT( '', #123 );
#54 = PRESENTATION_STYLE_ASSIGNMENT( ( #124 ) );
#55 = ADVANCED_FACE( '', ( #125 ), #126, .T. );
#56 = PRESENTATION_STYLE_ASSIGNMENT( ( #127 ) );
#57 = EDGE_CURVE( '', #103, #75, #128, .T. );
#58 = PRESENTATION_STYLE_ASSIGNMENT( ( #129 ) );
#59 = EDGE_CURVE( '', #51, #53, #130, .T. );
#60 = PRESENTATION_STYLE_ASSIGNMENT( ( #131 ) );
#61 = EDGE_CURVE( '', #103, #73, #132, .T. );
#62 = PRESENTATION_STYLE_ASSIGNMENT( ( #133 ) );
#63 = EDGE_CURVE( '', #91, #73, #134, .T. );
#64 = PRESENTATION_STYLE_ASSIGNMENT( ( #135 ) );
#65 = EDGE_CURVE( '', #53, #71, #136, .T. );
#66 = PRESENTATION_STYLE_ASSIGNMENT( ( #137 ) );
#67 = EDGE_CURVE( '', #91, #75, #138, .T. );
#68 = PRESENTATION_STYLE_ASSIGNMENT( ( #139 ) );
#69 = ADVANCED_FACE( '', ( #140 ), #141, .T. );
#70 = PRESENTATION_STYLE_ASSIGNMENT( ( #142 ) );
#71 = VERTEX_POINT( '', #143 );
#72 = PRESENTATION_STYLE_ASSIGNMENT( ( #144 ) );
#73 = VERTEX_POINT( '', #145 );
#74 = PRESENTATION_STYLE_ASSIGNMENT( ( #146 ) );
#75 = VERTEX_POINT( '', #147 );
#76 = PRESENTATION_STYLE_ASSIGNMENT( ( #148 ) );
#77 = ADVANCED_FACE( '', ( #149 ), #150, .F. );
#78 = PRESENTATION_STYLE_ASSIGNMENT( ( #151 ) );
#79 = EDGE_CURVE( '', #75, #103, #152, .T. );
#80 = PRESENTATION_STYLE_ASSIGNMENT( ( #153 ) );
#81 = MANIFOLD_SOLID_BREP( '1', #154 );
#82 = PRESENTATION_STYLE_ASSIGNMENT( ( #155 ) );
#83 = ADVANCED_FACE( '', ( #156, #157 ), #158, .T. );
#84 = PRESENTATION_STYLE_ASSIGNMENT( ( #159 ) );
#85 = VERTEX_POINT( '', #160 );
#86 = PRESENTATION_STYLE_ASSIGNMENT( ( #161 ) );
#87 = EDGE_CURVE( '', #71, #85, #162, .T. );
#88 = PRESENTATION_STYLE_ASSIGNMENT( ( #163 ) );
#89 = EDGE_CURVE( '', #51, #85, #164, .T. );
#90 = PRESENTATION_STYLE_ASSIGNMENT( ( #165 ) );
#91 = VERTEX_POINT( '', #166 );
#92 = PRESENTATION_STYLE_ASSIGNMENT( ( #167 ) );
#93 = EDGE_CURVE( '', #73, #91, #168, .T. );
#94 = PRESENTATION_STYLE_ASSIGNMENT( ( #169 ) );
#95 = EDGE_CURVE( '', #71, #53, #170, .T. );
#96 = PRESENTATION_STYLE_ASSIGNMENT( ( #171 ) );
#97 = EDGE_CURVE( '', #85, #51, #172, .T. );
#98 = PRESENTATION_STYLE_ASSIGNMENT( ( #173 ) );
#99 = ADVANCED_FACE( '', ( #174 ), #175, .F. );
#100 = PRESENTATION_STYLE_ASSIGNMENT( ( #176 ) );
#101 = ADVANCED_FACE( '', ( #177, #178 ), #179, .F. );
#102 = PRESENTATION_STYLE_ASSIGNMENT( ( #180 ) );
#103 = VERTEX_POINT( '', #181 );
#104 = PRODUCT( '1', '1', 'PART-1-DESC', ( #182 ) );
#105 = PRODUCT_DEFINITION( 'NONE', 'NONE', #183, #2 );
#106 = AXIS2_PLACEMENT_3D( '', #184, #185, #186 );
#109 = LENGTH_MEASURE_WITH_UNIT( LENGTH_MEASURE( 1.00000000000000 ), #187 );
#112 = DIMENSIONAL_EXPONENTS( 1.00000000000000, 0.000000000000000, 0.000000000000000, 0.000000000000000, 0.000000000000000, 0.000000000000000, 0.000000000000000 );
#114 = DIMENSIONAL_EXPONENTS( 0.000000000000000, 0.000000000000000, 0.000000000000000, 0.000000000000000, 0.000000000000000, 0.000000000000000, 0.000000000000000 );
#120 = POINT_STYLE( ' ', #188, POSITIVE_LENGTH_MEASURE( 1.00000000000000E-006 ), #189 );
#121 = CARTESIAN_POINT( '', ( 5000.00000000000, 6.73533494602307E-015, 55.0000000000000 ) );
#122 = POINT_STYLE( ' ', #190, POSITIVE_LENGTH_MEASURE( 1.00000000000000E-006 ), #191 );
#123 = CARTESIAN_POINT( '', ( 0.000000000000000, 6.73533494602307E-015, 55.0000000000000 ) );
#124 = SURFACE_STYLE_USAGE( .BOTH., #192 );
#125 = FACE_OUTER_BOUND( '', #193, .T. );
#126 = CYLINDRICAL_SURFACE( '', #194, 55.0000000000000 );
#127 = CURVE_STYLE( '', #195, POSITIVE_LENGTH_MEASURE( 1.00000000000000E-006 ), #196 );
#128 = CIRCLE( '', #197, 48.4000000000000 );
#129 = CURVE_STYLE( '', #198, POSITIVE_LENGTH_MEASURE( 1.00000000000000E-006 ), #199 );
#130 = LINE( '', #200, #201 );
#131 = CURVE_STYLE( '', #202, POSITIVE_LENGTH_MEASURE( 1.00000000000000E-006 ), #203 );
#132 = LINE( '', #204, #205 );
#133 = CURVE_STYLE( '', #206, POSITIVE_LENGTH_MEASURE( 1.00000000000000E-006 ), #207 );
#134 = CIRCLE( '', #208, 48.4000000000000 );
#135 = CURVE_STYLE( '', #209, POSITIVE_LENGTH_MEASURE( 1.00000000000000E-006 ), #210 );
#136 = CIRCLE( '', #211, 55.0000000000000 );
#137 = CURVE_STYLE( '', #212, POSITIVE_LENGTH_MEASURE( 1.00000000000000E-006 ), #213 );
#138 = LINE( '', #214, #215 );
#139 = SURFACE_STYLE_USAGE( .BOTH., #216 );
#140 = FACE_OUTER_BOUND( '', #217, .T. );
#141 = CYLINDRICAL_SURFACE( '', #218, 55.0000000000000 );
#142 = POINT_STYLE( ' ', #219, POSITIVE_LENGTH_MEASURE( 1.00000000000000E-006 ), #220 );
#143 = CARTESIAN_POINT( '', ( 0.000000000000000, 0.000000000000000, -55.0000000000000 ) );
#144 = POINT_STYLE( ' ', #221, POSITIVE_LENGTH_MEASURE( 1.00000000000000E-006 ), #222 );
#145 = CARTESIAN_POINT( '', ( 0.000000000000000, 5.92709475250031E-015, 48.4000000000000 ) );
#146 = POINT_STYLE( ' ', #223, POSITIVE_LENGTH_MEASURE( 1.00000000000000E-006 ), #224 );
#147 = CARTESIAN_POINT( '', ( 5000.00000000000, 0.000000000000000, -48.4000000000000 ) );
#148 = SURFACE_STYLE_USAGE( .BOTH., #225 );
#149 = FACE_OUTER_BOUND( '', #226, .T. );
#150 = CYLINDRICAL_SURFACE( '', #227, 48.4000000000000 );
#151 = CURVE_STYLE( '', #228, POSITIVE_LENGTH_MEASURE( 1.00000000000000E-006 ), #229 );
#152 = CIRCLE( '', #230, 48.4000000000000 );
#153 = SURFACE_STYLE_USAGE( .BOTH., #231 );
#154 = CLOSED_SHELL( '', ( #55, #77, #99, #69, #83, #101 ) );
#155 = SURFACE_STYLE_USAGE( .BOTH., #232 );
#156 = FACE_OUTER_BOUND( '', #233, .T. );
#157 = FACE_BOUND( '', #234, .T. );
#158 = PLANE( '', #235 );
#159 = POINT_STYLE( ' ', #236, POSITIVE_LENGTH_MEASURE( 1.00000000000000E-006 ), #237 );
#160 = CARTESIAN_POINT( '', ( 5000.00000000000, 0.000000000000000, -55.0000000000000 ) );
#161 = CURVE_STYLE( '', #238, POSITIVE_LENGTH_MEASURE( 1.00000000000000E-006 ), #239 );
#162 = LINE( '', #240, #241 );
#163 = CURVE_STYLE( '', #242, POSITIVE_LENGTH_MEASURE( 1.00000000000000E-006 ), #243 );
#164 = CIRCLE( '', #244, 55.0000000000000 );
#165 = POINT_STYLE( ' ', #245, POSITIVE_LENGTH_MEASURE( 1.00000000000000E-006 ), #246 );
#166 = CARTESIAN_POINT( '', ( 0.000000000000000, 0.000000000000000, -48.4000000000000 ) );
#167 = CURVE_STYLE( '', #247, POSITIVE_LENGTH_MEASURE( 1.00000000000000E-006 ), #248 );
#168 = CIRCLE( '', #249, 48.4000000000000 );
#169 = CURVE_STYLE( '', #250, POSITIVE_LENGTH_MEASURE( 1.00000000000000E-006 ), #251 );
#170 = CIRCLE( '', #252, 55.0000000000000 );
#171 = CURVE_STYLE( '', #253, POSITIVE_LENGTH_MEASURE( 1.00000000000000E-006 ), #254 );
#172 = CIRCLE( '', #255, 55.0000000000000 );
#173 = SURFACE_STYLE_USAGE( .BOTH., #256 );
#174 = FACE_OUTER_BOUND( '', #257, .T. );
#175 = CYLINDRICAL_SURFACE( '', #258, 48.4000000000000 );
#176 = SURFACE_STYLE_USAGE( .BOTH., #259 );
#177 = FACE_OUTER_BOUND( '', #260, .T. );
#178 = FACE_BOUND( '', #261, .T. );
#179 = PLANE( '', #262 );
#180 = POINT_STYLE( ' ', #263, POSITIVE_LENGTH_MEASURE( 1.00000000000000E-006 ), #264 );
#181 = CARTESIAN_POINT( '', ( 5000.00000000000, 5.92709475250031E-015, 48.4000000000000 ) );
#182 = PRODUCT_CONTEXT( '', #37, 'mechanical' );
#183 = PRODUCT_DEFINITION_FORMATION_WITH_SPECIFIED_SOURCE( ' ', 'NONE', #104, .NOT_KNOWN. );
#184 = CARTESIAN_POINT( '', ( 0.000000000000000, 0.000000000000000, 0.000000000000000 ) );
#185 = DIRECTION( '', ( 0.000000000000000, 0.000000000000000, 1.00000000000000 ) );
#186 = DIRECTION( '', ( 1.00000000000000, 0.000000000000000, 0.000000000000000 ) );
#187 =  ( NAMED_UNIT( #112 )LENGTH_UNIT(  )SI_UNIT( .MILLI., .METRE. ) );
#188 = PRE_DEFINED_MARKER( '' );
#189 = COLOUR_RGB( '', 0.689999997615810, 0.689999997615810, 0.689999997615810 );
#190 = PRE_DEFINED_MARKER( '' );
#191 = COLOUR_RGB( '', 0.689999997615810, 0.689999997615810, 0.689999997615810 );
#192 = SURFACE_SIDE_STYLE( '', ( #266 ) );
#193 = EDGE_LOOP( '', ( #267, #268, #269, #270 ) );
#194 = AXIS2_PLACEMENT_3D( '', #271, #272, #273 );
#195 = DRAUGHTING_PRE_DEFINED_CURVE_FONT( 'continuous' );
#196 = COLOUR_RGB( '', 0.689999997615810, 0.689999997615810, 0.689999997615810 );
#197 = AXIS2_PLACEMENT_3D( '', #274, #275, #276 );
#198 = DRAUGHTING_PRE_DEFINED_CURVE_FONT( 'continuous' );
#199 = COLOUR_RGB( '', 0.689999997615810, 0.689999997615810, 0.689999997615810 );
#200 = CARTESIAN_POINT( '', ( 0.000000000000000, 6.73533494602307E-015, 55.0000000000000 ) );
#201 = VECTOR( '', #277, 1.00000000000000 );
#202 = DRAUGHTING_PRE_DEFINED_CURVE_FONT( 'continuous' );
#203 = COLOUR_RGB( '', 0.689999997615810, 0.689999997615810, 0.689999997615810 );
#204 = CARTESIAN_POINT( '', ( 0.000000000000000, 5.92709475250031E-015, 48.4000000000000 ) );
#205 = VECTOR( '', #278, 1.00000000000000 );
#206 = DRAUGHTING_PRE_DEFINED_CURVE_FONT( 'continuous' );
#207 = COLOUR_RGB( '', 0.689999997615810, 0.689999997615810, 0.689999997615810 );
#208 = AXIS2_PLACEMENT_3D( '', #279, #280, #281 );
#209 = DRAUGHTING_PRE_DEFINED_CURVE_FONT( 'continuous' );
#210 = COLOUR_RGB( '', 0.689999997615810, 0.689999997615810, 0.689999997615810 );
#211 = AXIS2_PLACEMENT_3D( '', #282, #283, #284 );
#212 = DRAUGHTING_PRE_DEFINED_CURVE_FONT( 'continuous' );
#213 = COLOUR_RGB( '', 0.689999997615810, 0.689999997615810, 0.689999997615810 );
#214 = CARTESIAN_POINT( '', ( 0.000000000000000, -5.92709475250031E-015, -48.4000000000000 ) );
#215 = VECTOR( '', #285, 1.00000000000000 );
#216 = SURFACE_SIDE_STYLE( '', ( #286 ) );
#217 = EDGE_LOOP( '', ( #287, #288, #289, #290 ) );
#218 = AXIS2_PLACEMENT_3D( '', #291, #292, #293 );
#219 = PRE_DEFINED_MARKER( '' );
#220 = COLOUR_RGB( '', 0.689999997615810, 0.689999997615810, 0.689999997615810 );
#221 = PRE_DEFINED_MARKER( '' );
#222 = COLOUR_RGB( '', 0.689999997615810, 0.689999997615810, 0.689999997615810 );
#223 = PRE_DEFINED_MARKER( '' );
#224 = COLOUR_RGB( '', 0.689999997615810, 0.689999997615810, 0.689999997615810 );
#225 = SURFACE_SIDE_STYLE( '', ( #294 ) );
#226 = EDGE_LOOP( '', ( #295, #296, #297, #298 ) );
#227 = AXIS2_PLACEMENT_3D( '', #299, #300, #301 );
#228 = DRAUGHTING_PRE_DEFINED_CURVE_FONT( 'continuous' );
#229 = COLOUR_RGB( '', 0.689999997615810, 0.689999997615810, 0.689999997615810 );
#230 = AXIS2_PLACEMENT_3D( '', #302, #303, #304 );
#231 = SURFACE_SIDE_STYLE( '', ( #305 ) );
#232 = SURFACE_SIDE_STYLE( '', ( #306 ) );
#233 = EDGE_LOOP( '', ( #307, #308 ) );
#234 = EDGE_LOOP( '', ( #309, #310 ) );
#235 = AXIS2_PLACEMENT_3D( '', #311, #312, #313 );
#236 = PRE_DEFINED_MARKER( '' );
#237 = COLOUR_RGB( '', 0.689999997615810, 0.689999997615810, 0.689999997615810 );
#238 = DRAUGHTING_PRE_DEFINED_CURVE_FONT( 'continuous' );
#239 = COLOUR_RGB( '', 0.689999997615810, 0.689999997615810, 0.689999997615810 );
#240 = CARTESIAN_POINT( '', ( 0.000000000000000, -6.73533494602307E-015, -55.0000000000000 ) );
#241 = VECTOR( '', #314, 1.00000000000000 );
#242 = DRAUGHTING_PRE_DEFINED_CURVE_FONT( 'continuous' );
#243 = COLOUR_RGB( '', 0.689999997615810, 0.689999997615810, 0.689999997615810 );
#244 = AXIS2_PLACEMENT_3D( '', #315, #316, #317 );
#245 = PRE_DEFINED_MARKER( '' );
#246 = COLOUR_RGB( '', 0.689999997615810, 0.689999997615810, 0.689999997615810 );
#247 = DRAUGHTING_PRE_DEFINED_CURVE_FONT( 'continuous' );
#248 = COLOUR_RGB( '', 0.689999997615810, 0.689999997615810, 0.689999997615810 );
#249 = AXIS2_PLACEMENT_3D( '', #318, #319, #320 );
#250 = DRAUGHTING_PRE_DEFINED_CURVE_FONT( 'continuous' );
#251 = COLOUR_RGB( '', 0.689999997615810, 0.689999997615810, 0.689999997615810 );
#252 = AXIS2_PLACEMENT_3D( '', #321, #322, #323 );
#253 = DRAUGHTING_PRE_DEFINED_CURVE_FONT( 'continuous' );
#254 = COLOUR_RGB( '', 0.689999997615810, 0.689999997615810, 0.689999997615810 );
#255 = AXIS2_PLACEMENT_3D( '', #324, #325, #326 );
#256 = SURFACE_SIDE_STYLE( '', ( #327 ) );
#257 = EDGE_LOOP( '', ( #328, #329, #330, #331 ) );
#258 = AXIS2_PLACEMENT_3D( '', #332, #333, #334 );
#259 = SURFACE_SIDE_STYLE( '', ( #335 ) );
#260 = EDGE_LOOP( '', ( #336, #337 ) );
#261 = EDGE_LOOP( '', ( #338, #339 ) );
#262 = AXIS2_PLACEMENT_3D( '', #340, #341, #342 );
#263 = PRE_DEFINED_MARKER( '' );
#264 = COLOUR_RGB( '', 0.689999997615810, 0.689999997615810, 0.689999997615810 );
#266 = SURFACE_STYLE_FILL_AREA( #343 );
#267 = ORIENTED_EDGE( '', *, *, #87, .F. );
#268 = ORIENTED_EDGE( '', *, *, #95, .T. );
#269 = ORIENTED_EDGE( '', *, *, #59, .F. );
#270 = ORIENTED_EDGE( '', *, *, #89, .T. );
#271 = CARTESIAN_POINT( '', ( 0.000000000000000, 0.000000000000000, 0.000000000000000 ) );
#272 = DIRECTION( '', ( -1.00000000000000, -0.000000000000000, -0.000000000000000 ) );
#273 = DIRECTION( '', ( 0.000000000000000, 0.000000000000000, -1.00000000000000 ) );
#274 = CARTESIAN_POINT( '', ( 5000.00000000000, 0.000000000000000, 0.000000000000000 ) );
#275 = DIRECTION( '', ( 1.00000000000000, 0.000000000000000, 0.000000000000000 ) );
#276 = DIRECTION( '', ( 0.000000000000000, 0.000000000000000, -1.00000000000000 ) );
#277 = DIRECTION( '', ( -1.00000000000000, -0.000000000000000, -0.000000000000000 ) );
#278 = DIRECTION( '', ( -1.00000000000000, 0.000000000000000, 0.000000000000000 ) );
#279 = CARTESIAN_POINT( '', ( 0.000000000000000, 0.000000000000000, 0.000000000000000 ) );
#280 = DIRECTION( '', ( 1.00000000000000, -0.000000000000000, 0.000000000000000 ) );
#281 = DIRECTION( '', ( 0.000000000000000, 0.000000000000000, -1.00000000000000 ) );
#282 = CARTESIAN_POINT( '', ( 0.000000000000000, 0.000000000000000, 0.000000000000000 ) );
#283 = DIRECTION( '', ( 1.00000000000000, -0.000000000000000, 0.000000000000000 ) );
#284 = DIRECTION( '', ( 0.000000000000000, 0.000000000000000, -1.00000000000000 ) );
#285 = DIRECTION( '', ( 1.00000000000000, 0.000000000000000, 0.000000000000000 ) );
#286 = SURFACE_STYLE_FILL_AREA( #344 );
#287 = ORIENTED_EDGE( '', *, *, #87, .T. );
#288 = ORIENTED_EDGE( '', *, *, #97, .T. );
#289 = ORIENTED_EDGE( '', *, *, #59, .T. );
#290 = ORIENTED_EDGE( '', *, *, #65, .T. );
#291 = CARTESIAN_POINT( '', ( 0.000000000000000, 0.000000000000000, 0.000000000000000 ) );
#292 = DIRECTION( '', ( -1.00000000000000, -0.000000000000000, -0.000000000000000 ) );
#293 = DIRECTION( '', ( 0.000000000000000, 0.000000000000000, -1.00000000000000 ) );
#294 = SURFACE_STYLE_FILL_AREA( #345 );
#295 = ORIENTED_EDGE( '', *, *, #67, .F. );
#296 = ORIENTED_EDGE( '', *, *, #93, .F. );
#297 = ORIENTED_EDGE( '', *, *, #61, .F. );
#298 = ORIENTED_EDGE( '', *, *, #57, .T. );
#299 = CARTESIAN_POINT( '', ( 0.000000000000000, 0.000000000000000, 0.000000000000000 ) );
#300 = DIRECTION( '', ( -1.00000000000000, -0.000000000000000, -0.000000000000000 ) );
#301 = DIRECTION( '', ( 0.000000000000000, 0.000000000000000, -1.00000000000000 ) );
#302 = CARTESIAN_POINT( '', ( 5000.00000000000, 0.000000000000000, 0.000000000000000 ) );
#303 = DIRECTION( '', ( 1.00000000000000, 0.000000000000000, 0.000000000000000 ) );
#304 = DIRECTION( '', ( 0.000000000000000, 0.000000000000000, -1.00000000000000 ) );
#305 = SURFACE_STYLE_FILL_AREA( #346 );
#306 = SURFACE_STYLE_FILL_AREA( #347 );
#307 = ORIENTED_EDGE( '', *, *, #97, .F. );
#308 = ORIENTED_EDGE( '', *, *, #89, .F. );
#309 = ORIENTED_EDGE( '', *, *, #79, .F. );
#310 = ORIENTED_EDGE( '', *, *, #57, .F. );
#311 = CARTESIAN_POINT( '', ( 5000.00000000000, 0.000000000000000, 0.000000000000000 ) );
#312 = DIRECTION( '', ( 1.00000000000000, 0.000000000000000, 0.000000000000000 ) );
#313 = DIRECTION( '', ( 0.000000000000000, 0.000000000000000, -1.00000000000000 ) );
#314 = DIRECTION( '', ( 1.00000000000000, 0.000000000000000, 0.000000000000000 ) );
#315 = CARTESIAN_POINT( '', ( 5000.00000000000, 0.000000000000000, 0.000000000000000 ) );
#316 = DIRECTION( '', ( -1.00000000000000, 0.000000000000000, 0.000000000000000 ) );
#317 = DIRECTION( '', ( 0.000000000000000, 0.000000000000000, -1.00000000000000 ) );
#318 = CARTESIAN_POINT( '', ( 0.000000000000000, 0.000000000000000, 0.000000000000000 ) );
#319 = DIRECTION( '', ( 1.00000000000000, -0.000000000000000, 0.000000000000000 ) );
#320 = DIRECTION( '', ( 0.000000000000000, 0.000000000000000, -1.00000000000000 ) );
#321 = CARTESIAN_POINT( '', ( 0.000000000000000, 0.000000000000000, 0.000000000000000 ) );
#322 = DIRECTION( '', ( 1.00000000000000, -0.000000000000000, 0.000000000000000 ) );
#323 = DIRECTION( '', ( 0.000000000000000, 0.000000000000000, -1.00000000000000 ) );
#324 = CARTESIAN_POINT( '', ( 5000.00000000000, 0.000000000000000, 0.000000000000000 ) );
#325 = DIRECTION( '', ( -1.00000000000000, 0.000000000000000, 0.000000000000000 ) );
#326 = DIRECTION( '', ( 0.000000000000000, 0.000000000000000, -1.00000000000000 ) );
#327 = SURFACE_STYLE_FILL_AREA( #348 );
#328 = ORIENTED_EDGE( '', *, *, #67, .T. );
#329 = ORIENTED_EDGE( '', *, *, #79, .T. );
#330 = ORIENTED_EDGE( '', *, *, #61, .T. );
#331 = ORIENTED_EDGE( '', *, *, #63, .F. );
#332 = CARTESIAN_POINT( '', ( 0.000000000000000, 0.000000000000000, 0.000000000000000 ) );
#333 = DIRECTION( '', ( -1.00000000000000, -0.000000000000000, -0.000000000000000 ) );
#334 = DIRECTION( '', ( 0.000000000000000, 0.000000000000000, -1.00000000000000 ) );
#335 = SURFACE_STYLE_FILL_AREA( #349 );
#336 = ORIENTED_EDGE( '', *, *, #95, .F. );
#337 = ORIENTED_EDGE( '', *, *, #65, .F. );
#338 = ORIENTED_EDGE( '', *, *, #63, .T. );
#339 = ORIENTED_EDGE( '', *, *, #93, .T. );
#340 = CARTESIAN_POINT( '', ( 0.000000000000000, 0.000000000000000, 0.000000000000000 ) );
#341 = DIRECTION( '', ( 1.00000000000000, 0.000000000000000, 0.000000000000000 ) );
#342 = DIRECTION( '', ( 0.000000000000000, 0.000000000000000, -1.00000000000000 ) );
#343 = FILL_AREA_STYLE( '', ( #350 ) );
#344 = FILL_AREA_STYLE( '', ( #351 ) );
#345 = FILL_AREA_STYLE( '', ( #352 ) );
#346 = FILL_AREA_STYLE( '', ( #353 ) );
#347 = FILL_AREA_STYLE( '', ( #354 ) );
#348 = FILL_AREA_STYLE( '', ( #355 ) );
#349 = FILL_AREA_STYLE( '', ( #356 ) );
#350 = FILL_AREA_STYLE_COLOUR( '', #357 );
#351 = FILL_AREA_STYLE_COLOUR( '', #358 );
#352 = FILL_AREA_STYLE_COLOUR( '', #359 );
#353 = FILL_AREA_STYLE_COLOUR( '', #360 );
#354 = FILL_AREA_STYLE_COLOUR( '', #361 );
#355 = FILL_AREA_STYLE_COLOUR( '', #362 );
#356 = FILL_AREA_STYLE_COLOUR( '', #363 );
#357 = COLOUR_RGB( '', 0.689999997615810, 0.689999997615810, 0.689999997615810 );
#358 = COLOUR_RGB( '', 0.689999997615810, 0.689999997615810, 0.689999997615810 );
#359 = COLOUR_RGB( '', 0.689999997615810, 0.689999997615810, 0.689999997615810 );
#360 = COLOUR_RGB( '', 0.689999997615810, 0.689999997615810, 0.689999997615810 );
#361 = COLOUR_RGB( '', 0.689999997615810, 0.689999997615810, 0.689999997615810 );
#362 = COLOUR_RGB( '', 0.689999997615810, 0.689999997615810, 0.689999997615810 );
#363 = COLOUR_RGB( '', 0.689999997615810, 0.689999997615810, 0.689999997615810 );
ENDSEC;
END-ISO-10303-21;
