ISO-10303-21;
HEADER;
/* Generated by software containing ST-Developer
 * from STEP Tools, Inc. (www.steptools.com) 
 */

FILE_DESCRIPTION(
/* description */ (''),
/* implementation_level */ '2;1');

FILE_NAME(
/* name */ 'C:\\Users\\Gabriele\\Desktop\\catalogo\\EL50\\EL500630.stp',

/* time_stamp */ '2016-10-17T17:05:15+02:00',
/* author */ ('Gabriele'),
/* organization */ (''),
/* preprocessor_version */ 'ST-DEVELOPER v16.5',
/* originating_system */ 'Autodesk Inventor 2017',
/* authorisation */ '');

FILE_SCHEMA (('AUTOMOTIVE_DESIGN { 1 0 10303 214 3 1 1 }'));
ENDSEC;

DATA;
#10=MECHANICAL_DESIGN_GEOMETRIC_PRESENTATION_REPRESENTATION('',(#13),#394);
#11=SHAPE_REPRESENTATION_RELATIONSHIP('SRR','None',#403,#12);
#12=ADVANCED_BREP_SHAPE_REPRESENTATION('',(#14),#393);
#13=STYLED_ITEM('',(#412),#14);
#14=MANIFOLD_SOLID_BREP('Solido1',#189);
#15=PLANE('',#202);
#16=PLANE('',#212);
#17=PLANE('',#220);
#18=PLANE('',#221);
#19=TOROIDAL_SURFACE('',#199,32.,0.5);
#20=TOROIDAL_SURFACE('',#206,37.,0.5);
#21=TOROIDAL_SURFACE('',#209,32.,0.5);
#22=TOROIDAL_SURFACE('',#216,37.,0.5);
#23=TOROIDAL_SURFACE('',#217,34.,30.5);
#24=FACE_BOUND('',#74,.T.);
#25=FACE_BOUND('',#76,.T.);
#26=FACE_BOUND('',#78,.T.);
#27=FACE_BOUND('',#80,.T.);
#28=FACE_BOUND('',#82,.T.);
#29=FACE_BOUND('',#84,.T.);
#30=FACE_BOUND('',#86,.T.);
#31=FACE_BOUND('',#88,.T.);
#32=FACE_BOUND('',#90,.T.);
#33=FACE_BOUND('',#92,.T.);
#34=FACE_BOUND('',#94,.T.);
#35=FACE_BOUND('',#96,.T.);
#36=FACE_BOUND('',#98,.T.);
#37=CYLINDRICAL_SURFACE('',#197,37.5);
#38=CYLINDRICAL_SURFACE('',#204,31.5);
#39=CYLINDRICAL_SURFACE('',#208,37.5);
#40=CYLINDRICAL_SURFACE('',#214,31.5);
#41=CIRCLE('',#195,37.5);
#42=CIRCLE('',#196,37.5);
#43=CIRCLE('',#198,37.5);
#44=CIRCLE('',#200,31.5);
#45=CIRCLE('',#201,32.);
#46=CIRCLE('',#203,37.);
#47=CIRCLE('',#205,31.5);
#48=CIRCLE('',#207,37.5);
#49=CIRCLE('',#210,31.5);
#50=CIRCLE('',#211,32.);
#51=CIRCLE('',#213,37.);
#52=CIRCLE('',#215,31.5);
#53=CIRCLE('',#218,30.5);
#54=CIRCLE('',#219,30.5);
#55=(
BOUNDED_SURFACE()
B_SPLINE_SURFACE(2,2,((#325,#326,#327),(#328,#329,#330),(#331,#332,#333),
(#334,#335,#336),(#337,#338,#339),(#340,#341,#342),(#343,#344,#345),(#346,
#347,#348),(#349,#350,#351)),.UNSPECIFIED.,.F.,.F.,.F.)
B_SPLINE_SURFACE_WITH_KNOTS((3,2,2,2,3),(3,3),(-2.67993641040402,-1.33996820520201,
6.66133814775094E-16,1.33996820520201,2.67993641040402),(0.,1.57079632679505),
 .UNSPECIFIED.)
GEOMETRIC_REPRESENTATION_ITEM()
RATIONAL_B_SPLINE_SURFACE(((1.,0.707106781186493,1.),(0.783831537843808,
0.554252595717194,0.783831537843808),(1.,0.707106781186493,1.),(0.783831537843808,
0.554252595717194,0.783831537843808),(1.,0.707106781186493,1.),(0.783831537843808,
0.554252595717194,0.783831537843808),(1.,0.707106781186493,1.),(0.783831537843808,
0.554252595717194,0.783831537843808),(1.,0.707106781186493,1.)))
REPRESENTATION_ITEM('')
SURFACE()
);
#56=FACE_OUTER_BOUND('',#71,.T.);
#57=FACE_OUTER_BOUND('',#72,.T.);
#58=FACE_OUTER_BOUND('',#73,.T.);
#59=FACE_OUTER_BOUND('',#75,.T.);
#60=FACE_OUTER_BOUND('',#77,.T.);
#61=FACE_OUTER_BOUND('',#79,.T.);
#62=FACE_OUTER_BOUND('',#81,.T.);
#63=FACE_OUTER_BOUND('',#83,.T.);
#64=FACE_OUTER_BOUND('',#85,.T.);
#65=FACE_OUTER_BOUND('',#87,.T.);
#66=FACE_OUTER_BOUND('',#89,.T.);
#67=FACE_OUTER_BOUND('',#91,.T.);
#68=FACE_OUTER_BOUND('',#93,.T.);
#69=FACE_OUTER_BOUND('',#95,.T.);
#70=FACE_OUTER_BOUND('',#97,.T.);
#71=EDGE_LOOP('',(#137,#138,#139,#140));
#72=EDGE_LOOP('',(#141,#142,#143,#144));
#73=EDGE_LOOP('',(#145));
#74=EDGE_LOOP('',(#146,#147));
#75=EDGE_LOOP('',(#148));
#76=EDGE_LOOP('',(#149));
#77=EDGE_LOOP('',(#150));
#78=EDGE_LOOP('',(#151));
#79=EDGE_LOOP('',(#152));
#80=EDGE_LOOP('',(#153));
#81=EDGE_LOOP('',(#154));
#82=EDGE_LOOP('',(#155));
#83=EDGE_LOOP('',(#156,#157));
#84=EDGE_LOOP('',(#158));
#85=EDGE_LOOP('',(#159));
#86=EDGE_LOOP('',(#160));
#87=EDGE_LOOP('',(#161));
#88=EDGE_LOOP('',(#162));
#89=EDGE_LOOP('',(#163));
#90=EDGE_LOOP('',(#164));
#91=EDGE_LOOP('',(#165));
#92=EDGE_LOOP('',(#166));
#93=EDGE_LOOP('',(#167));
#94=EDGE_LOOP('',(#168));
#95=EDGE_LOOP('',(#169));
#96=EDGE_LOOP('',(#170));
#97=EDGE_LOOP('',(#171));
#98=EDGE_LOOP('',(#172));
#99=ELLIPSE('',#191,0.528019173150985,0.50013634321905);
#100=ELLIPSE('',#192,53.3877326733399,37.5);
#101=ELLIPSE('',#193,0.528019173149852,0.500136343218619);
#102=ELLIPSE('',#194,53.3877326733399,37.5);
#103=VERTEX_POINT('',#317);
#104=VERTEX_POINT('',#318);
#105=VERTEX_POINT('',#320);
#106=VERTEX_POINT('',#322);
#107=VERTEX_POINT('',#355);
#108=VERTEX_POINT('',#358);
#109=VERTEX_POINT('',#360);
#110=VERTEX_POINT('',#363);
#111=VERTEX_POINT('',#366);
#112=VERTEX_POINT('',#369);
#113=VERTEX_POINT('',#373);
#114=VERTEX_POINT('',#375);
#115=VERTEX_POINT('',#378);
#116=VERTEX_POINT('',#381);
#117=VERTEX_POINT('',#385);
#118=VERTEX_POINT('',#387);
#119=EDGE_CURVE('',#103,#104,#99,.T.);
#120=EDGE_CURVE('',#103,#105,#100,.T.);
#121=EDGE_CURVE('',#106,#105,#101,.T.);
#122=EDGE_CURVE('',#106,#104,#102,.T.);
#123=EDGE_CURVE('',#105,#103,#41,.T.);
#124=EDGE_CURVE('',#106,#104,#42,.T.);
#125=EDGE_CURVE('',#107,#107,#43,.T.);
#126=EDGE_CURVE('',#108,#108,#44,.T.);
#127=EDGE_CURVE('',#109,#109,#45,.T.);
#128=EDGE_CURVE('',#110,#110,#46,.T.);
#129=EDGE_CURVE('',#111,#111,#47,.T.);
#130=EDGE_CURVE('',#112,#112,#48,.T.);
#131=EDGE_CURVE('',#113,#113,#49,.T.);
#132=EDGE_CURVE('',#114,#114,#50,.T.);
#133=EDGE_CURVE('',#115,#115,#51,.T.);
#134=EDGE_CURVE('',#116,#116,#52,.T.);
#135=EDGE_CURVE('',#117,#117,#53,.T.);
#136=EDGE_CURVE('',#118,#118,#54,.T.);
#137=ORIENTED_EDGE('',*,*,#119,.F.);
#138=ORIENTED_EDGE('',*,*,#120,.T.);
#139=ORIENTED_EDGE('',*,*,#121,.F.);
#140=ORIENTED_EDGE('',*,*,#122,.T.);
#141=ORIENTED_EDGE('',*,*,#121,.T.);
#142=ORIENTED_EDGE('',*,*,#123,.T.);
#143=ORIENTED_EDGE('',*,*,#119,.T.);
#144=ORIENTED_EDGE('',*,*,#124,.F.);
#145=ORIENTED_EDGE('',*,*,#125,.F.);
#146=ORIENTED_EDGE('',*,*,#120,.F.);
#147=ORIENTED_EDGE('',*,*,#123,.F.);
#148=ORIENTED_EDGE('',*,*,#126,.T.);
#149=ORIENTED_EDGE('',*,*,#127,.T.);
#150=ORIENTED_EDGE('',*,*,#128,.F.);
#151=ORIENTED_EDGE('',*,*,#127,.F.);
#152=ORIENTED_EDGE('',*,*,#129,.F.);
#153=ORIENTED_EDGE('',*,*,#126,.F.);
#154=ORIENTED_EDGE('',*,*,#130,.T.);
#155=ORIENTED_EDGE('',*,*,#128,.T.);
#156=ORIENTED_EDGE('',*,*,#122,.F.);
#157=ORIENTED_EDGE('',*,*,#124,.T.);
#158=ORIENTED_EDGE('',*,*,#130,.F.);
#159=ORIENTED_EDGE('',*,*,#131,.T.);
#160=ORIENTED_EDGE('',*,*,#132,.T.);
#161=ORIENTED_EDGE('',*,*,#133,.F.);
#162=ORIENTED_EDGE('',*,*,#132,.F.);
#163=ORIENTED_EDGE('',*,*,#134,.T.);
#164=ORIENTED_EDGE('',*,*,#131,.F.);
#165=ORIENTED_EDGE('',*,*,#133,.T.);
#166=ORIENTED_EDGE('',*,*,#125,.T.);
#167=ORIENTED_EDGE('',*,*,#135,.F.);
#168=ORIENTED_EDGE('',*,*,#136,.F.);
#169=ORIENTED_EDGE('',*,*,#129,.T.);
#170=ORIENTED_EDGE('',*,*,#135,.T.);
#171=ORIENTED_EDGE('',*,*,#134,.F.);
#172=ORIENTED_EDGE('',*,*,#136,.T.);
#173=B_SPLINE_SURFACE_WITH_KNOTS('',3,3,((#287,#288,#289,#290,#291,#292),
(#293,#294,#295,#296,#297,#298),(#299,#300,#301,#302,#303,#304),(#305,#306,
#307,#308,#309,#310),(#311,#312,#313,#314,#315,#316)),.UNSPECIFIED.,.F.,
 .F.,.F.,(4,1,4),(4,1,1,4),(0.,0.5,1.),(-0.463908270685583,-0.198817830293478,
0.0662726100986264,0.463908270686783),.UNSPECIFIED.);
#174=ADVANCED_FACE('',(#56),#173,.T.);
#175=ADVANCED_FACE('',(#57),#55,.F.);
#176=ADVANCED_FACE('',(#58,#24),#37,.T.);
#177=ADVANCED_FACE('',(#59,#25),#19,.T.);
#178=ADVANCED_FACE('',(#60,#26),#15,.T.);
#179=ADVANCED_FACE('',(#61,#27),#38,.F.);
#180=ADVANCED_FACE('',(#62,#28),#20,.T.);
#181=ADVANCED_FACE('',(#63,#29),#39,.T.);
#182=ADVANCED_FACE('',(#64,#30),#21,.T.);
#183=ADVANCED_FACE('',(#65,#31),#16,.F.);
#184=ADVANCED_FACE('',(#66,#32),#40,.F.);
#185=ADVANCED_FACE('',(#67,#33),#22,.T.);
#186=ADVANCED_FACE('',(#68,#34),#23,.F.);
#187=ADVANCED_FACE('',(#69,#35),#17,.T.);
#188=ADVANCED_FACE('',(#70,#36),#18,.F.);
#189=CLOSED_SHELL('',(#174,#175,#176,#177,#178,#179,#180,#181,#182,#183,
#184,#185,#186,#187,#188));
#190=AXIS2_PLACEMENT_3D('placement',#286,#222,#223);
#191=AXIS2_PLACEMENT_3D('',#319,#224,#225);
#192=AXIS2_PLACEMENT_3D('',#321,#226,#227);
#193=AXIS2_PLACEMENT_3D('',#323,#228,#229);
#194=AXIS2_PLACEMENT_3D('',#324,#230,#231);
#195=AXIS2_PLACEMENT_3D('',#352,#232,#233);
#196=AXIS2_PLACEMENT_3D('',#353,#234,#235);
#197=AXIS2_PLACEMENT_3D('',#354,#236,#237);
#198=AXIS2_PLACEMENT_3D('',#356,#238,#239);
#199=AXIS2_PLACEMENT_3D('',#357,#240,#241);
#200=AXIS2_PLACEMENT_3D('',#359,#242,#243);
#201=AXIS2_PLACEMENT_3D('',#361,#244,#245);
#202=AXIS2_PLACEMENT_3D('',#362,#246,#247);
#203=AXIS2_PLACEMENT_3D('',#364,#248,#249);
#204=AXIS2_PLACEMENT_3D('',#365,#250,#251);
#205=AXIS2_PLACEMENT_3D('',#367,#252,#253);
#206=AXIS2_PLACEMENT_3D('',#368,#254,#255);
#207=AXIS2_PLACEMENT_3D('',#370,#256,#257);
#208=AXIS2_PLACEMENT_3D('',#371,#258,#259);
#209=AXIS2_PLACEMENT_3D('',#372,#260,#261);
#210=AXIS2_PLACEMENT_3D('',#374,#262,#263);
#211=AXIS2_PLACEMENT_3D('',#376,#264,#265);
#212=AXIS2_PLACEMENT_3D('',#377,#266,#267);
#213=AXIS2_PLACEMENT_3D('',#379,#268,#269);
#214=AXIS2_PLACEMENT_3D('',#380,#270,#271);
#215=AXIS2_PLACEMENT_3D('',#382,#272,#273);
#216=AXIS2_PLACEMENT_3D('',#383,#274,#275);
#217=AXIS2_PLACEMENT_3D('',#384,#276,#277);
#218=AXIS2_PLACEMENT_3D('',#386,#278,#279);
#219=AXIS2_PLACEMENT_3D('',#388,#280,#281);
#220=AXIS2_PLACEMENT_3D('',#389,#282,#283);
#221=AXIS2_PLACEMENT_3D('',#390,#284,#285);
#222=DIRECTION('axis',(0.,0.,1.));
#223=DIRECTION('refdir',(1.,0.,0.));
#224=DIRECTION('center_axis',(0.202077529368135,-0.202077529368182,-0.958295019421953));
#225=DIRECTION('ref_axis',(-0.677616861445048,0.677616951776065,-0.285780782683297));
#226=DIRECTION('center_axis',(0.711773999328801,0.702408551969211,0.));
#227=DIRECTION('ref_axis',(0.702408551969211,-0.711773999328801,0.));
#228=DIRECTION('center_axis',(0.202077529368552,-0.202077529368565,0.958295019421785));
#229=DIRECTION('ref_axis',(0.677616861447578,-0.677616951773296,-0.285780782683862));
#230=DIRECTION('center_axis',(-0.702408551969211,-0.711773999328801,-4.15909411781245E-17));
#231=DIRECTION('ref_axis',(0.711773999328801,-0.702408551969211,0.));
#232=DIRECTION('center_axis',(0.,1.,0.));
#233=DIRECTION('ref_axis',(-1.,0.,0.));
#234=DIRECTION('center_axis',(1.,6.12323399573677E-17,0.));
#235=DIRECTION('ref_axis',(-6.12323399573677E-17,1.,0.));
#236=DIRECTION('center_axis',(0.,1.,0.));
#237=DIRECTION('ref_axis',(-1.,0.,0.));
#238=DIRECTION('center_axis',(0.,-1.,0.));
#239=DIRECTION('ref_axis',(-1.,0.,0.));
#240=DIRECTION('center_axis',(-1.,-6.12323399573677E-17,0.));
#241=DIRECTION('ref_axis',(0.,0.,1.));
#242=DIRECTION('center_axis',(-1.,-6.12323399573677E-17,0.));
#243=DIRECTION('ref_axis',(-6.16790569236198E-17,1.,0.));
#244=DIRECTION('center_axis',(1.,6.12323399573677E-17,0.));
#245=DIRECTION('ref_axis',(-6.12323399573677E-17,1.,0.));
#246=DIRECTION('center_axis',(1.,6.12323399573677E-17,0.));
#247=DIRECTION('ref_axis',(0.,0.,1.));
#248=DIRECTION('center_axis',(-1.,-6.12323399573677E-17,0.));
#249=DIRECTION('ref_axis',(-6.12323399573677E-17,1.,0.));
#250=DIRECTION('center_axis',(1.,2.22044604925031E-16,0.));
#251=DIRECTION('ref_axis',(-2.22044604925031E-16,1.,0.));
#252=DIRECTION('center_axis',(1.,2.22044604925031E-16,0.));
#253=DIRECTION('ref_axis',(-2.22044604925031E-16,1.,0.));
#254=DIRECTION('center_axis',(1.,6.12323399573677E-17,0.));
#255=DIRECTION('ref_axis',(0.,0.,-1.));
#256=DIRECTION('center_axis',(1.,6.12323399573677E-17,0.));
#257=DIRECTION('ref_axis',(-6.10622663543836E-17,1.,0.));
#258=DIRECTION('center_axis',(1.,0.,0.));
#259=DIRECTION('ref_axis',(0.,1.,0.));
#260=DIRECTION('center_axis',(0.,1.,0.));
#261=DIRECTION('ref_axis',(0.,0.,1.));
#262=DIRECTION('center_axis',(0.,1.,0.));
#263=DIRECTION('ref_axis',(-1.,0.,0.));
#264=DIRECTION('center_axis',(0.,-1.,0.));
#265=DIRECTION('ref_axis',(-1.,0.,0.));
#266=DIRECTION('center_axis',(0.,1.,0.));
#267=DIRECTION('ref_axis',(0.,0.,1.));
#268=DIRECTION('center_axis',(0.,1.,0.));
#269=DIRECTION('ref_axis',(-1.,0.,0.));
#270=DIRECTION('center_axis',(0.,1.,0.));
#271=DIRECTION('ref_axis',(-1.,0.,0.));
#272=DIRECTION('center_axis',(0.,1.,0.));
#273=DIRECTION('ref_axis',(-1.,0.,0.));
#274=DIRECTION('center_axis',(0.,1.,0.));
#275=DIRECTION('ref_axis',(0.,0.,1.));
#276=DIRECTION('center_axis',(0.,0.,-1.));
#277=DIRECTION('ref_axis',(-1.,0.,0.));
#278=DIRECTION('center_axis',(-1.,-2.22044604925031E-16,0.));
#279=DIRECTION('ref_axis',(-2.22044604925031E-16,1.,0.));
#280=DIRECTION('center_axis',(0.,1.,0.));
#281=DIRECTION('ref_axis',(-1.,0.,0.));
#282=DIRECTION('center_axis',(1.,2.22044604925031E-16,0.));
#283=DIRECTION('ref_axis',(0.,0.,1.));
#284=DIRECTION('center_axis',(0.,1.,0.));
#285=DIRECTION('ref_axis',(0.,0.,1.));
#286=CARTESIAN_POINT('',(0.,0.,0.));
#287=CARTESIAN_POINT('Ctrl Pts',(33.536647093735,38.0161976116818,-16.7792521201117));
#288=CARTESIAN_POINT('Ctrl Pts',(35.0193202050586,36.5137555255407,-13.8158372709941));
#289=CARTESIAN_POINT('Ctrl Pts',(37.1925618689752,34.3115373061039,-7.49441840508648));
#290=CARTESIAN_POINT('Ctrl Pts',(37.9713447098273,33.5223706940429,4.18114047385951));
#291=CARTESIAN_POINT('Ctrl Pts',(35.7606567607055,35.7625344824851,12.3341298464782));
#292=CARTESIAN_POINT('Ctrl Pts',(33.5366470937149,38.0161976117023,16.779252120152));
#293=CARTESIAN_POINT('Ctrl Pts',(33.5574991094919,38.120349076057,-16.7375752510459));
#294=CARTESIAN_POINT('Ctrl Pts',(35.034380386622,36.6264985133987,-13.7762361584828));
#295=CARTESIAN_POINT('Ctrl Pts',(37.1948867724125,34.4397686165053,-7.4665611882049));
#296=CARTESIAN_POINT('Ctrl Pts',(37.9674042676271,33.6573127807099,4.16464368138638));
#297=CARTESIAN_POINT('Ctrl Pts',(35.7728210251723,35.8795732320845,12.2955666122442));
#298=CARTESIAN_POINT('Ctrl Pts',(33.5574991094719,38.1203490760773,16.7375752510861));
#299=CARTESIAN_POINT('Ctrl Pts',(33.6718656283288,38.3281343716712,-16.6908354203193));
#300=CARTESIAN_POINT('Ctrl Pts',(35.1488437980154,36.8511562019846,-13.7313117737909));
#301=CARTESIAN_POINT('Ctrl Pts',(37.3051337974622,34.6948662025378,-7.43445851818897));
#302=CARTESIAN_POINT('Ctrl Pts',(38.0744694891069,33.9255305108931,4.14573178368139));
#303=CARTESIAN_POINT('Ctrl Pts',(35.887332882844,36.112667117156,12.2515499505695));
#304=CARTESIAN_POINT('Ctrl Pts',(33.6718656283088,38.3281343716913,16.6908354203595));
#305=CARTESIAN_POINT('Ctrl Pts',(33.879650923943,38.4425008905081,-16.7375752510459));
#306=CARTESIAN_POINT('Ctrl Pts',(35.3735014866013,36.965619613378,-13.7762361584828));
#307=CARTESIAN_POINT('Ctrl Pts',(37.5602313834956,34.8051132275866,-7.46656118820406));
#308=CARTESIAN_POINT('Ctrl Pts',(38.3426872192892,34.0325957323738,4.16464368138836));
#309=CARTESIAN_POINT('Ctrl Pts',(36.1204267679155,36.2271789748277,12.2955666122442));
#310=CARTESIAN_POINT('Ctrl Pts',(33.8796509239227,38.4425008905281,16.7375752510861));
#311=CARTESIAN_POINT('Ctrl Pts',(33.9838023883182,38.463352906265,-16.7792521201117));
#312=CARTESIAN_POINT('Ctrl Pts',(35.4862444744593,36.9806797949415,-13.8158372709941));
#313=CARTESIAN_POINT('Ctrl Pts',(37.6884626938974,34.8074381310236,-7.49441840508535));
#314=CARTESIAN_POINT('Ctrl Pts',(38.4776293059558,34.028655290174,4.18114047386218));
#315=CARTESIAN_POINT('Ctrl Pts',(36.2374655175149,36.2393432392945,12.3341298464782));
#316=CARTESIAN_POINT('Ctrl Pts',(33.9838023882978,38.4633529062851,16.779252120152));
#317=CARTESIAN_POINT('',(33.5526315789474,38.,16.7472658702077));
#318=CARTESIAN_POINT('',(34.,38.4473684210526,16.7472658702077));
#319=CARTESIAN_POINT('Origin',(34.0534488050808,37.9465511911205,16.8641450240153));
#320=CARTESIAN_POINT('',(33.5526315789474,38.,-16.7472658702077));
#321=CARTESIAN_POINT('Origin',(0.,72.,0.));
#322=CARTESIAN_POINT('',(34.,38.4473684210526,-16.7472658702077));
#323=CARTESIAN_POINT('Origin',(34.0534488050801,37.9465511911214,-16.8641450240153));
#324=CARTESIAN_POINT('Origin',(2.22044604925031E-15,72.,0.));
#325=CARTESIAN_POINT('Ctrl Pts',(33.5743493563344,38.,16.7036841834013));
#326=CARTESIAN_POINT('Ctrl Pts',(33.5743493563343,38.4256506436657,16.7036841834013));
#327=CARTESIAN_POINT('Ctrl Pts',(34.,38.4256506436657,16.7036841834013));
#328=CARTESIAN_POINT('Ctrl Pts',(20.3412180422116,38.,43.3022338770135));
#329=CARTESIAN_POINT('Ctrl Pts',(20.3412180422106,51.6587819577894,43.3022338770135));
#330=CARTESIAN_POINT('Ctrl Pts',(34.,51.6587819577884,43.3022338770135));
#331=CARTESIAN_POINT('Ctrl Pts',(-8.5793909788942,38.,36.5053975520233));
#332=CARTESIAN_POINT('Ctrl Pts',(-8.57939097889746,80.5793909788975,36.5053975520233));
#333=CARTESIAN_POINT('Ctrl Pts',(34.,80.5793909788942,36.5053975520233));
#334=CARTESIAN_POINT('Ctrl Pts',(-37.5,38.,29.7085612270331));
#335=CARTESIAN_POINT('Ctrl Pts',(-37.5000000000055,109.500000000005,29.7085612270331));
#336=CARTESIAN_POINT('Ctrl Pts',(34.,109.5,29.7085612270331));
#337=CARTESIAN_POINT('Ctrl Pts',(-37.5,38.,-2.4980018054066E-14));
#338=CARTESIAN_POINT('Ctrl Pts',(-37.5000000000055,109.500000000005,-2.4980018054066E-14));
#339=CARTESIAN_POINT('Ctrl Pts',(34.,109.5,-2.4980018054066E-14));
#340=CARTESIAN_POINT('Ctrl Pts',(-37.5,38.,-29.7085612270331));
#341=CARTESIAN_POINT('Ctrl Pts',(-37.5000000000055,109.500000000005,-29.7085612270331));
#342=CARTESIAN_POINT('Ctrl Pts',(34.,109.5,-29.7085612270331));
#343=CARTESIAN_POINT('Ctrl Pts',(-8.57939097889416,38.,-36.5053975520233));
#344=CARTESIAN_POINT('Ctrl Pts',(-8.57939097889742,80.5793909788974,-36.5053975520233));
#345=CARTESIAN_POINT('Ctrl Pts',(34.,80.5793909788942,-36.5053975520233));
#346=CARTESIAN_POINT('Ctrl Pts',(20.3412180422117,38.,-43.3022338770135));
#347=CARTESIAN_POINT('Ctrl Pts',(20.3412180422106,51.6587819577894,-43.3022338770135));
#348=CARTESIAN_POINT('Ctrl Pts',(34.,51.6587819577883,-43.3022338770135));
#349=CARTESIAN_POINT('Ctrl Pts',(33.5743493563344,38.,-16.7036841834013));
#350=CARTESIAN_POINT('Ctrl Pts',(33.5743493563343,38.4256506436657,-16.7036841834013));
#351=CARTESIAN_POINT('Ctrl Pts',(34.,38.4256506436656,-16.7036841834013));
#352=CARTESIAN_POINT('Origin',(0.,38.,0.));
#353=CARTESIAN_POINT('Origin',(34.,72.,0.));
#354=CARTESIAN_POINT('Origin',(0.,0.,0.));
#355=CARTESIAN_POINT('',(37.5,0.5,4.59242549680258E-15));
#356=CARTESIAN_POINT('Origin',(0.,0.5,0.));
#357=CARTESIAN_POINT('Origin',(71.5,72.,0.));
#358=CARTESIAN_POINT('',(71.5,40.5,3.85763741731416E-15));
#359=CARTESIAN_POINT('Origin',(71.5,72.,0.));
#360=CARTESIAN_POINT('',(72.,40.,-3.91886975727153E-15));
#361=CARTESIAN_POINT('Origin',(72.,72.,0.));
#362=CARTESIAN_POINT('Origin',(72.,72.,-7.89491928622334E-16));
#363=CARTESIAN_POINT('',(72.,35.,4.53119315684521E-15));
#364=CARTESIAN_POINT('Origin',(72.,72.,0.));
#365=CARTESIAN_POINT('Origin',(72.,72.,0.));
#366=CARTESIAN_POINT('',(34.,40.5,3.85763741731416E-15));
#367=CARTESIAN_POINT('Origin',(34.,72.,0.));
#368=CARTESIAN_POINT('Origin',(71.5,72.,0.));
#369=CARTESIAN_POINT('',(71.5,34.5,-4.59242549680258E-15));
#370=CARTESIAN_POINT('Origin',(71.5,72.,0.));
#371=CARTESIAN_POINT('Origin',(34.,72.,0.));
#372=CARTESIAN_POINT('Origin',(0.,0.5,0.));
#373=CARTESIAN_POINT('',(31.5,0.5,-3.85763741731416E-15));
#374=CARTESIAN_POINT('Origin',(0.,0.5,0.));
#375=CARTESIAN_POINT('',(32.,0.,3.91886975727153E-15));
#376=CARTESIAN_POINT('Origin',(0.,0.,0.));
#377=CARTESIAN_POINT('Origin',(-3.54066983922288E-15,0.,-7.89491928622334E-16));
#378=CARTESIAN_POINT('',(37.,0.,-4.53119315684521E-15));
#379=CARTESIAN_POINT('Origin',(0.,0.,0.));
#380=CARTESIAN_POINT('Origin',(0.,0.,0.));
#381=CARTESIAN_POINT('',(31.5,38.,3.85763741731416E-15));
#382=CARTESIAN_POINT('Origin',(0.,38.,0.));
#383=CARTESIAN_POINT('Origin',(0.,0.5,0.));
#384=CARTESIAN_POINT('Origin',(34.,38.,0.));
#385=CARTESIAN_POINT('',(34.,102.5,0.));
#386=CARTESIAN_POINT('Origin',(34.,72.,0.));
#387=CARTESIAN_POINT('',(-30.5,38.,0.));
#388=CARTESIAN_POINT('Origin',(0.,38.,0.));
#389=CARTESIAN_POINT('Origin',(34.,72.,-4.69935671799008E-16));
#390=CARTESIAN_POINT('Origin',(-3.14108381557023E-15,38.,-4.69935671799008E-16));
#391=UNCERTAINTY_MEASURE_WITH_UNIT(LENGTH_MEASURE(0.01),#395,
'DISTANCE_ACCURACY_VALUE',
'Maximum model space distance between geometric entities at asserted c
onnectivities');
#392=UNCERTAINTY_MEASURE_WITH_UNIT(LENGTH_MEASURE(1.E-6),#395,
'DISTANCE_ACCURACY_VALUE',
'Maximum model space distance between geometric entities at asserted c
onnectivities');
#393=(
GEOMETRIC_REPRESENTATION_CONTEXT(3)
GLOBAL_UNCERTAINTY_ASSIGNED_CONTEXT((#391))
GLOBAL_UNIT_ASSIGNED_CONTEXT((#395,#398,#396))
REPRESENTATION_CONTEXT('','3D')
);
#394=(
GEOMETRIC_REPRESENTATION_CONTEXT(3)
GLOBAL_UNCERTAINTY_ASSIGNED_CONTEXT((#392))
GLOBAL_UNIT_ASSIGNED_CONTEXT((#395,#398,#396))
REPRESENTATION_CONTEXT('','3D')
);
#395=(
LENGTH_UNIT()
NAMED_UNIT(*)
SI_UNIT(.MILLI.,.METRE.)
);
#396=(
NAMED_UNIT(*)
SI_UNIT($,.STERADIAN.)
SOLID_ANGLE_UNIT()
);
#397=DIMENSIONAL_EXPONENTS(0.,0.,0.,0.,0.,0.,0.);
#398=(
CONVERSION_BASED_UNIT('degree',#400)
NAMED_UNIT(#397)
PLANE_ANGLE_UNIT()
);
#399=(
NAMED_UNIT(*)
PLANE_ANGLE_UNIT()
SI_UNIT($,.RADIAN.)
);
#400=PLANE_ANGLE_MEASURE_WITH_UNIT(PLANE_ANGLE_MEASURE(0.01745329252),#399);
#401=SHAPE_DEFINITION_REPRESENTATION(#402,#403);
#402=PRODUCT_DEFINITION_SHAPE('',$,#405);
#403=SHAPE_REPRESENTATION('',(#190),#393);
#404=PRODUCT_DEFINITION_CONTEXT('part definition',#409,'design');
#405=PRODUCT_DEFINITION('EL500630','EL500630',#406,#404);
#406=PRODUCT_DEFINITION_FORMATION('',$,#411);
#407=PRODUCT_RELATED_PRODUCT_CATEGORY('EL500630','EL500630',(#411));
#408=APPLICATION_PROTOCOL_DEFINITION('international standard',
'automotive_design',2009,#409);
#409=APPLICATION_CONTEXT(
'Core Data for Automotive Mechanical Design Process');
#410=PRODUCT_CONTEXT('part definition',#409,'mechanical');
#411=PRODUCT('EL500630','EL500630',$,(#410));
#412=PRESENTATION_STYLE_ASSIGNMENT((#413));
#413=SURFACE_STYLE_USAGE(.BOTH.,#414);
#414=SURFACE_SIDE_STYLE('',(#415));
#415=SURFACE_STYLE_FILL_AREA(#416);
#416=FILL_AREA_STYLE('',(#417));
#417=FILL_AREA_STYLE_COLOUR('',#418);
#418=COLOUR_RGB('',0.8,0.8,0.8);
ENDSEC;
END-ISO-10303-21;
