ISO-10303-21;
HEADER;
FILE_DESCRIPTION( ( 'STEP AP214' ), '1' );
FILE_NAME( 'p:/temp/worker_11/temp/exporttempdir_3440_292_Q33Qj/format_0/70064016007(architecture400).stp', '2021-11-25T10:43:03', ( 'License CC BY-ND 4.0' ), ( 'CADENAS' ), ' ', 'PARTsolutions', ' ' );
FILE_SCHEMA( ( 'AUTOMOTIVE_DESIGN { 1 0 10303 214 1 1 1 1 }' ) );
ENDSEC;
DATA;
#1 = MECHANICAL_DESIGN_GEOMETRIC_PRESENTATION_REPRESENTATION( ' ', ( #10, #11, #12, #13, #14, #15, #16 ), #6 );
#2 = PRODUCT_DEFINITION_CONTEXT( '', #17, 'design' );
#3 = APPLICATION_PROTOCOL_DEFINITION( 'international standard', 'automotive_design', 2001, #17 );
#4 = PRODUCT_CATEGORY_RELATIONSHIP( 'NONE', 'NONE', #18, #19 );
#5 = SHAPE_DEFINITION_REPRESENTATION( #20, #21 );
#6 =  ( GEOMETRIC_REPRESENTATION_CONTEXT( 3 )GLOBAL_UNCERTAINTY_ASSIGNED_CONTEXT( ( #24 ) )GLOBAL_UNIT_ASSIGNED_CONTEXT( ( #26, #27, #28 ) )REPRESENTATION_CONTEXT( 'NONE', 'WORKSPACE' ) );
#10 = STYLED_ITEM( '', ( #30 ), #31 );
#11 = STYLED_ITEM( '', ( #32 ), #33 );
#12 = STYLED_ITEM( '', ( #34 ), #35 );
#13 = STYLED_ITEM( '', ( #36 ), #37 );
#14 = STYLED_ITEM( '', ( #38 ), #39 );
#15 = STYLED_ITEM( '', ( #40 ), #41 );
#16 = STYLED_ITEM( '', ( #42 ), #43 );
#17 = APPLICATION_CONTEXT( 'core data for automotive mechanical design processes' );
#18 = PRODUCT_CATEGORY( 'part', 'NONE' );
#19 = PRODUCT_RELATED_PRODUCT_CATEGORY( 'detail', ' ', ( #44 ) );
#20 = PRODUCT_DEFINITION_SHAPE( 'NONE', 'NONE', #45 );
#21 = ADVANCED_BREP_SHAPE_REPRESENTATION( '_70064016007(architecture400)', ( #46, #47 ), #6 );
#24 = UNCERTAINTY_MEASURE_WITH_UNIT( LENGTH_MEASURE( 0.00100000000000000 ), #26, '', '' );
#26 =  ( CONVERSION_BASED_UNIT( 'MILLIMETRE', #50 )LENGTH_UNIT(  )NAMED_UNIT( #53 ) );
#27 =  ( NAMED_UNIT( #55 )PLANE_ANGLE_UNIT(  )SI_UNIT( $, .RADIAN. ) );
#28 =  ( NAMED_UNIT( #55 )SI_UNIT( $, .STERADIAN. )SOLID_ANGLE_UNIT(  ) );
#30 = PRESENTATION_STYLE_ASSIGNMENT( ( #61 ) );
#31 = ADVANCED_FACE( '', ( #62, #63 ), #64, .F. );
#32 = PRESENTATION_STYLE_ASSIGNMENT( ( #65 ) );
#33 = ADVANCED_FACE( '', ( #66, #67 ), #68, .T. );
#34 = PRESENTATION_STYLE_ASSIGNMENT( ( #69 ) );
#35 = ADVANCED_FACE( '', ( #70, #71 ), #72, .T. );
#36 = PRESENTATION_STYLE_ASSIGNMENT( ( #73 ) );
#37 = ADVANCED_FACE( '', ( #74, #75 ), #76, .F. );
#38 = PRESENTATION_STYLE_ASSIGNMENT( ( #77 ) );
#39 = ADVANCED_FACE( '', ( #78, #79 ), #80, .F. );
#40 = PRESENTATION_STYLE_ASSIGNMENT( ( #81 ) );
#41 = ADVANCED_FACE( '', ( #82, #83 ), #84, .T. );
#42 = PRESENTATION_STYLE_ASSIGNMENT( ( #85 ) );
#43 = ADVANCED_FACE( '', ( #86, #87 ), #88, .F. );
#44 = PRODUCT( '_70064016007(architecture400)', '_70064016007(architecture400)', 'PART-_70064016007(architecture400)-DESC', ( #89 ) );
#45 = PRODUCT_DEFINITION( 'NONE', 'NONE', #90, #2 );
#46 = MANIFOLD_SOLID_BREP( '_70064016007(architecture400)', #91 );
#47 = AXIS2_PLACEMENT_3D( '', #92, #93, #94 );
#50 = LENGTH_MEASURE_WITH_UNIT( LENGTH_MEASURE( 1.00000000000000 ), #95 );
#53 = DIMENSIONAL_EXPONENTS( 1.00000000000000, 0.000000000000000, 0.000000000000000, 0.000000000000000, 0.000000000000000, 0.000000000000000, 0.000000000000000 );
#55 = DIMENSIONAL_EXPONENTS( 0.000000000000000, 0.000000000000000, 0.000000000000000, 0.000000000000000, 0.000000000000000, 0.000000000000000, 0.000000000000000 );
#61 = SURFACE_STYLE_USAGE( .BOTH., #96 );
#62 = FACE_OUTER_BOUND( '', #97, .T. );
#63 = FACE_OUTER_BOUND( '', #98, .T. );
#64 = TOROIDAL_SURFACE( '', #99, 36.2000000000000, 21.9000000000000 );
#65 = SURFACE_STYLE_USAGE( .BOTH., #100 );
#66 = FACE_OUTER_BOUND( '', #101, .T. );
#67 = FACE_OUTER_BOUND( '', #102, .T. );
#68 = ( BOUNDED_SURFACE(  )B_SPLINE_SURFACE( 3, 3, ( ( #105, #106, #107, #108, #109, #110, #111 ), ( #112, #113, #114, #115, #116, #117, #118 ), ( #119, #120, #121, #122, #123, #124, #125 ), ( #126, #127, #128, #129, #130, #131, #132 ) ), .UNSPECIFIED., .F., .T., .F. )B_SPLINE_SURFACE_WITH_KNOTS( ( 4, 4 ), ( 4, 3, 4 ), ( 0.000000000000000, 6.28318530717959 ), ( -1.25399171610073, -0.626995858050362, 1.99840144432528E-15 ), .UNSPECIFIED. )GEOMETRIC_REPRESENTATION_ITEM(  )RATIONAL_B_SPLINE_SURFACE( ( ( 1.00000000000000, 0.333333333333333, 0.333333333333333, 1.00000000000000, 0.333333333333333, 0.333333333333333, 1.00000000000000 ), ( 0.873195822642230, 0.291065274214076, 0.291065274214076, 0.873195822642230, 0.291065274214076, 0.291065274214076, 0.873195822642230 ), ( 0.873195822642230, 0.291065274214076, 0.291065274214076, 0.873195822642230, 0.291065274214076, 0.291065274214076, 0.873195822642230 ), ( 1.00000000000000, 0.333333333333333, 0.333333333333333, 1.00000000000000, 0.333333333333333, 0.333333333333333, 1.00000000000000 ) ) )REPRESENTATION_ITEM( '' )SURFACE(  ) );
#69 = SURFACE_STYLE_USAGE( .BOTH., #138 );
#70 = FACE_BOUND( '', #139, .T. );
#71 = FACE_OUTER_BOUND( '', #140, .T. );
#72 = SPHERICAL_SURFACE( '', #141, 160.000000000000 );
#73 = SURFACE_STYLE_USAGE( .BOTH., #142 );
#74 = FACE_BOUND( '', #143, .T. );
#75 = FACE_OUTER_BOUND( '', #144, .T. );
#76 = SPHERICAL_SURFACE( '', #145, 138.100000000000 );
#77 = SURFACE_STYLE_USAGE( .BOTH., #146 );
#78 = FACE_BOUND( '', #147, .T. );
#79 = FACE_OUTER_BOUND( '', #148, .T. );
#80 = PLANE( '', #149 );
#81 = SURFACE_STYLE_USAGE( .BOTH., #150 );
#82 = FACE_OUTER_BOUND( '', #151, .T. );
#83 = FACE_OUTER_BOUND( '', #152, .T. );
#84 = CYLINDRICAL_SURFACE( '', #153, 80.0000000000000 );
#85 = SURFACE_STYLE_USAGE( .BOTH., #154 );
#86 = FACE_OUTER_BOUND( '', #155, .T. );
#87 = FACE_OUTER_BOUND( '', #156, .T. );
#88 = CYLINDRICAL_SURFACE( '', #157, 58.1000000000000 );
#89 = PRODUCT_CONTEXT( '', #17, 'mechanical' );
#90 = PRODUCT_DEFINITION_FORMATION_WITH_SPECIFIED_SOURCE( ' ', 'NONE', #44, .NOT_KNOWN. );
#91 = CLOSED_SHELL( '', ( #31, #43, #39, #41, #33, #35, #37 ) );
#92 = CARTESIAN_POINT( '', ( 0.000000000000000, 0.000000000000000, 0.000000000000000 ) );
#93 = DIRECTION( '', ( 0.000000000000000, 0.000000000000000, 1.00000000000000 ) );
#94 = DIRECTION( '', ( 1.00000000000000, 0.000000000000000, 0.000000000000000 ) );
#95 =  ( LENGTH_UNIT(  )NAMED_UNIT( #53 )SI_UNIT( .MILLI., .METRE. ) );
#96 = SURFACE_SIDE_STYLE( '', ( #159 ) );
#97 = EDGE_LOOP( '', ( #160 ) );
#98 = EDGE_LOOP( '', ( #161 ) );
#99 = AXIS2_PLACEMENT_3D( '', #162, #163, #164 );
#100 = SURFACE_SIDE_STYLE( '', ( #165 ) );
#101 = EDGE_LOOP( '', ( #166 ) );
#102 = EDGE_LOOP( '', ( #167 ) );
#105 = CARTESIAN_POINT( '', ( -96.4173899347382, 0.000000000000000, -80.0000000000000 ) );
#106 = CARTESIAN_POINT( '', ( -96.4173899347382, 160.000000000000, -80.0000000000000 ) );
#107 = CARTESIAN_POINT( '', ( -96.4173899347382, 160.000000000000, 80.0000000000000 ) );
#108 = CARTESIAN_POINT( '', ( -96.4173899347382, 0.000000000000000, 80.0000000000000 ) );
#109 = CARTESIAN_POINT( '', ( -96.4173899347382, -160.000000000000, 80.0000000000000 ) );
#110 = CARTESIAN_POINT( '', ( -96.4173899347382, -160.000000000000, -80.0000000000000 ) );
#111 = CARTESIAN_POINT( '', ( -96.4173899347382, 0.000000000000000, -80.0000000000000 ) );
#112 = CARTESIAN_POINT( '', ( -116.037351494630, 0.000000000000000, -80.0000000000000 ) );
#113 = CARTESIAN_POINT( '', ( -116.037351494630, 160.000000000000, -80.0000000000000 ) );
#114 = CARTESIAN_POINT( '', ( -116.037351494630, 160.000000000000, 80.0000000000000 ) );
#115 = CARTESIAN_POINT( '', ( -116.037351494630, 0.000000000000000, 80.0000000000000 ) );
#116 = CARTESIAN_POINT( '', ( -116.037351494630, -160.000000000000, 80.0000000000000 ) );
#117 = CARTESIAN_POINT( '', ( -116.037351494630, -160.000000000000, -80.0000000000000 ) );
#118 = CARTESIAN_POINT( '', ( -116.037351494630, 0.000000000000000, -80.0000000000000 ) );
#119 = CARTESIAN_POINT( '', ( -131.925473426432, 0.000000000000000, -68.4886806537294 ) );
#120 = CARTESIAN_POINT( '', ( -131.925473426432, 136.977361307459, -68.4886806537294 ) );
#121 = CARTESIAN_POINT( '', ( -131.925473426432, 136.977361307459, 68.4886806537294 ) );
#122 = CARTESIAN_POINT( '', ( -131.925473426432, 0.000000000000000, 68.4886806537294 ) );
#123 = CARTESIAN_POINT( '', ( -131.925473426432, -136.977361307459, 68.4886806537294 ) );
#124 = CARTESIAN_POINT( '', ( -131.925473426432, -136.977361307459, -68.4886806537294 ) );
#125 = CARTESIAN_POINT( '', ( -131.925473426432, 0.000000000000000, -68.4886806537294 ) );
#126 = CARTESIAN_POINT( '', ( -138.037715036178, 0.000000000000000, -49.8450921012075 ) );
#127 = CARTESIAN_POINT( '', ( -138.037715036178, 99.6901842024151, -49.8450921012075 ) );
#128 = CARTESIAN_POINT( '', ( -138.037715036178, 99.6901842024151, 49.8450921012075 ) );
#129 = CARTESIAN_POINT( '', ( -138.037715036178, 0.000000000000000, 49.8450921012075 ) );
#130 = CARTESIAN_POINT( '', ( -138.037715036178, -99.6901842024151, 49.8450921012075 ) );
#131 = CARTESIAN_POINT( '', ( -138.037715036178, -99.6901842024151, -49.8450921012075 ) );
#132 = CARTESIAN_POINT( '', ( -138.037715036178, 0.000000000000000, -49.8450921012075 ) );
#138 = SURFACE_SIDE_STYLE( '', ( #168 ) );
#139 = VERTEX_LOOP( '', #169 );
#140 = EDGE_LOOP( '', ( #170 ) );
#141 = AXIS2_PLACEMENT_3D( '', #171, #172, #173 );
#142 = SURFACE_SIDE_STYLE( '', ( #174 ) );
#143 = VERTEX_LOOP( '', #175 );
#144 = EDGE_LOOP( '', ( #176 ) );
#145 = AXIS2_PLACEMENT_3D( '', #177, #178, #179 );
#146 = SURFACE_SIDE_STYLE( '', ( #180 ) );
#147 = EDGE_LOOP( '', ( #181 ) );
#148 = EDGE_LOOP( '', ( #182 ) );
#149 = AXIS2_PLACEMENT_3D( '', #183, #184, #185 );
#150 = SURFACE_SIDE_STYLE( '', ( #186 ) );
#151 = EDGE_LOOP( '', ( #187 ) );
#152 = EDGE_LOOP( '', ( #188 ) );
#153 = AXIS2_PLACEMENT_3D( '', #189, #190, #191 );
#154 = SURFACE_SIDE_STYLE( '', ( #192 ) );
#155 = EDGE_LOOP( '', ( #193 ) );
#156 = EDGE_LOOP( '', ( #194 ) );
#157 = AXIS2_PLACEMENT_3D( '', #195, #196, #197 );
#159 = SURFACE_STYLE_FILL_AREA( #198 );
#160 = ORIENTED_EDGE( '', *, *, #199, .F. );
#161 = ORIENTED_EDGE( '', *, *, #200, .T. );
#162 = CARTESIAN_POINT( '', ( -96.4173899347381, 0.000000000000000, 0.000000000000000 ) );
#163 = DIRECTION( '', ( 1.00000000000000, 0.000000000000000, -0.000000000000000 ) );
#164 = DIRECTION( '', ( -0.000000000000000, 0.000000000000000, -1.00000000000000 ) );
#165 = SURFACE_STYLE_FILL_AREA( #201 );
#166 = ORIENTED_EDGE( '', *, *, #202, .T. );
#167 = ORIENTED_EDGE( '', *, *, #203, .F. );
#168 = SURFACE_STYLE_FILL_AREA( #204 );
#169 = VERTEX_POINT( '', #205 );
#170 = ORIENTED_EDGE( '', *, *, #202, .F. );
#171 = CARTESIAN_POINT( '', ( 13.9999999999987, 0.000000000000000, 2.70616862252382E-13 ) );
#172 = DIRECTION( '', ( 1.00000000000000, 0.000000000000000, 0.000000000000000 ) );
#173 = DIRECTION( '', ( 0.000000000000000, 0.000000000000000, 1.00000000000000 ) );
#174 = SURFACE_STYLE_FILL_AREA( #206 );
#175 = VERTEX_POINT( '', #207 );
#176 = ORIENTED_EDGE( '', *, *, #199, .T. );
#177 = CARTESIAN_POINT( '', ( 14.0000000000005, 0.000000000000000, -1.73472347597681E-13 ) );
#178 = DIRECTION( '', ( 1.00000000000000, 0.000000000000000, 0.000000000000000 ) );
#179 = DIRECTION( '', ( 0.000000000000000, 0.000000000000000, 1.00000000000000 ) );
#180 = SURFACE_STYLE_FILL_AREA( #208 );
#181 = ORIENTED_EDGE( '', *, *, #209, .F. );
#182 = ORIENTED_EDGE( '', *, *, #210, .T. );
#183 = CARTESIAN_POINT( '', ( 0.000000000000000, 0.000000000000000, 80.0000000000000 ) );
#184 = DIRECTION( '', ( -1.00000000000000, 0.000000000000000, 0.000000000000000 ) );
#185 = DIRECTION( '', ( 0.000000000000000, 0.000000000000000, 1.00000000000000 ) );
#186 = SURFACE_STYLE_FILL_AREA( #211 );
#187 = ORIENTED_EDGE( '', *, *, #210, .F. );
#188 = ORIENTED_EDGE( '', *, *, #203, .T. );
#189 = CARTESIAN_POINT( '', ( -124.100000000000, 0.000000000000000, 0.000000000000000 ) );
#190 = DIRECTION( '', ( -1.00000000000000, -0.000000000000000, 0.000000000000000 ) );
#191 = DIRECTION( '', ( -0.000000000000000, 0.000000000000000, -1.00000000000000 ) );
#192 = SURFACE_STYLE_FILL_AREA( #212 );
#193 = ORIENTED_EDGE( '', *, *, #200, .F. );
#194 = ORIENTED_EDGE( '', *, *, #209, .T. );
#195 = CARTESIAN_POINT( '', ( -124.100000000000, 0.000000000000000, 0.000000000000000 ) );
#196 = DIRECTION( '', ( -1.00000000000000, -0.000000000000000, 0.000000000000000 ) );
#197 = DIRECTION( '', ( -0.000000000000000, 0.000000000000000, -1.00000000000000 ) );
#198 = FILL_AREA_STYLE( '', ( #213 ) );
#199 = EDGE_CURVE( '', #214, #214, #215, .T. );
#200 = EDGE_CURVE( '', #216, #216, #217, .T. );
#201 = FILL_AREA_STYLE( '', ( #218 ) );
#202 = EDGE_CURVE( '', #219, #219, #220, .T. );
#203 = EDGE_CURVE( '', #221, #221, #222, .T. );
#204 = FILL_AREA_STYLE( '', ( #223 ) );
#205 = CARTESIAN_POINT( '', ( -146.000000000000, 0.000000000000000, 2.80414036645561E-13 ) );
#206 = FILL_AREA_STYLE( '', ( #224 ) );
#207 = CARTESIAN_POINT( '', ( -124.100000000000, 0.000000000000000, -1.65016161449568E-13 ) );
#208 = FILL_AREA_STYLE( '', ( #225 ) );
#209 = EDGE_CURVE( '', #226, #226, #227, .T. );
#210 = EDGE_CURVE( '', #228, #228, #229, .T. );
#211 = FILL_AREA_STYLE( '', ( #230 ) );
#212 = FILL_AREA_STYLE( '', ( #231 ) );
#213 = FILL_AREA_STYLE_COLOUR( '', #232 );
#214 = VERTEX_POINT( '', #233 );
#215 = CIRCLE( '', #234, 43.0225461334000 );
#216 = VERTEX_POINT( '', #235 );
#217 = CIRCLE( '', #236, 58.1000000000000 );
#218 = FILL_AREA_STYLE_COLOUR( '', #237 );
#219 = VERTEX_POINT( '', #238 );
#220 = CIRCLE( '', #239, 49.8450921012000 );
#221 = VERTEX_POINT( '', #240 );
#222 = CIRCLE( '', #241, 80.0000000000000 );
#223 = FILL_AREA_STYLE_COLOUR( '', #242 );
#224 = FILL_AREA_STYLE_COLOUR( '', #243 );
#225 = FILL_AREA_STYLE_COLOUR( '', #244 );
#226 = VERTEX_POINT( '', #245 );
#227 = CIRCLE( '', #246, 58.1000000000000 );
#228 = VERTEX_POINT( '', #247 );
#229 = CIRCLE( '', #248, 80.0000000000000 );
#230 = FILL_AREA_STYLE_COLOUR( '', #249 );
#231 = FILL_AREA_STYLE_COLOUR( '', #250 );
#232 = COLOUR_RGB( '', 0.689999997600000, 0.689999997600000, 0.689999997600000 );
#233 = CARTESIAN_POINT( '', ( -117.227552458322, 0.000000000000000, -43.0225461333756 ) );
#234 = AXIS2_PLACEMENT_3D( '', #251, #252, #253 );
#235 = CARTESIAN_POINT( '', ( -96.4173899347381, 0.000000000000000, -58.1000000000000 ) );
#236 = AXIS2_PLACEMENT_3D( '', #254, #255, #256 );
#237 = COLOUR_RGB( '', 0.689999997600000, 0.689999997600000, 0.689999997600000 );
#238 = CARTESIAN_POINT( '', ( -138.037715036178, 0.000000000000000, -49.8450921012076 ) );
#239 = AXIS2_PLACEMENT_3D( '', #257, #258, #259 );
#240 = CARTESIAN_POINT( '', ( -96.4173899347381, 0.000000000000000, -80.0000000000000 ) );
#241 = AXIS2_PLACEMENT_3D( '', #260, #261, #262 );
#242 = COLOUR_RGB( '', 0.689999997600000, 0.689999997600000, 0.689999997600000 );
#243 = COLOUR_RGB( '', 0.689999997600000, 0.689999997600000, 0.689999997600000 );
#244 = COLOUR_RGB( '', 0.689999997600000, 0.689999997600000, 0.689999997600000 );
#245 = CARTESIAN_POINT( '', ( 0.000000000000000, 0.000000000000000, -58.1000000000000 ) );
#246 = AXIS2_PLACEMENT_3D( '', #263, #264, #265 );
#247 = CARTESIAN_POINT( '', ( 0.000000000000000, 0.000000000000000, -80.0000000000000 ) );
#248 = AXIS2_PLACEMENT_3D( '', #266, #267, #268 );
#249 = COLOUR_RGB( '', 0.689999997600000, 0.689999997600000, 0.689999997600000 );
#250 = COLOUR_RGB( '', 0.689999997600000, 0.689999997600000, 0.689999997600000 );
#251 = CARTESIAN_POINT( '', ( -117.227552458322, 0.000000000000000, 0.000000000000000 ) );
#252 = DIRECTION( '', ( 1.00000000000000, 0.000000000000000, -0.000000000000000 ) );
#253 = DIRECTION( '', ( -0.000000000000000, 0.000000000000000, -1.00000000000000 ) );
#254 = CARTESIAN_POINT( '', ( -96.4173899347381, 0.000000000000000, 0.000000000000000 ) );
#255 = DIRECTION( '', ( 1.00000000000000, 0.000000000000000, -0.000000000000000 ) );
#256 = DIRECTION( '', ( -0.000000000000000, 0.000000000000000, -1.00000000000000 ) );
#257 = CARTESIAN_POINT( '', ( -138.037715036178, 0.000000000000000, 0.000000000000000 ) );
#258 = DIRECTION( '', ( 1.00000000000000, 0.000000000000000, -0.000000000000000 ) );
#259 = DIRECTION( '', ( -0.000000000000000, 0.000000000000000, -1.00000000000000 ) );
#260 = CARTESIAN_POINT( '', ( -96.4173899347381, 0.000000000000000, 0.000000000000000 ) );
#261 = DIRECTION( '', ( 1.00000000000000, 0.000000000000000, -0.000000000000000 ) );
#262 = DIRECTION( '', ( -0.000000000000000, 0.000000000000000, -1.00000000000000 ) );
#263 = CARTESIAN_POINT( '', ( 0.000000000000000, 0.000000000000000, 0.000000000000000 ) );
#264 = DIRECTION( '', ( 1.00000000000000, 0.000000000000000, -0.000000000000000 ) );
#265 = DIRECTION( '', ( -0.000000000000000, 0.000000000000000, -1.00000000000000 ) );
#266 = CARTESIAN_POINT( '', ( 0.000000000000000, 0.000000000000000, 0.000000000000000 ) );
#267 = DIRECTION( '', ( 1.00000000000000, 0.000000000000000, -0.000000000000000 ) );
#268 = DIRECTION( '', ( -0.000000000000000, 0.000000000000000, -1.00000000000000 ) );
ENDSEC;
END-ISO-10303-21;
