ISO-10303-21;
HEADER;
FILE_DESCRIPTION( ( 'STEP AP214' ), '1' );
FILE_NAME( 'p:/temp/worker_12/temp/exporttempdir_5488_627_wsW0u/format_0/22050004007(architecture400).stp', '2021-11-17T11:34:27', ( 'License CC BY-ND 4.0' ), ( 'CADENAS' ), ' ', 'PARTsolutions', ' ' );
FILE_SCHEMA( ( 'AUTOMOTIVE_DESIGN { 1 0 10303 214 1 1 1 1 }' ) );
ENDSEC;
DATA;
#1 = MECHANICAL_DESIGN_GEOMETRIC_PRESENTATION_REPRESENTATION( ' ', ( #10, #11, #12, #13, #14, #15, #16, #17, #18, #19, #20, #21 ), #6 );
#2 = PRODUCT_DEFINITION_CONTEXT( '', #22, 'design' );
#3 = APPLICATION_PROTOCOL_DEFINITION( 'international standard', 'automotive_design', 2001, #22 );
#4 = PRODUCT_CATEGORY_RELATIONSHIP( 'NONE', 'NONE', #23, #24 );
#5 = SHAPE_DEFINITION_REPRESENTATION( #25, #26 );
#6 =  ( GEOMETRIC_REPRESENTATION_CONTEXT( 3 )GLOBAL_UNCERTAINTY_ASSIGNED_CONTEXT( ( #29 ) )GLOBAL_UNIT_ASSIGNED_CONTEXT( ( #31, #32, #33 ) )REPRESENTATION_CONTEXT( 'NONE', 'WORKSPACE' ) );
#10 = STYLED_ITEM( '', ( #35 ), #36 );
#11 = STYLED_ITEM( '', ( #37 ), #38 );
#12 = STYLED_ITEM( '', ( #39 ), #40 );
#13 = STYLED_ITEM( '', ( #41 ), #42 );
#14 = STYLED_ITEM( '', ( #43 ), #44 );
#15 = STYLED_ITEM( '', ( #45 ), #46 );
#16 = STYLED_ITEM( '', ( #47 ), #48 );
#17 = STYLED_ITEM( '', ( #49 ), #50 );
#18 = STYLED_ITEM( '', ( #51 ), #52 );
#19 = STYLED_ITEM( '', ( #53 ), #54 );
#20 = STYLED_ITEM( '', ( #55 ), #56 );
#21 = STYLED_ITEM( '', ( #57 ), #58 );
#22 = APPLICATION_CONTEXT( 'core data for automotive mechanical design processes' );
#23 = PRODUCT_CATEGORY( 'part', 'NONE' );
#24 = PRODUCT_RELATED_PRODUCT_CATEGORY( 'detail', ' ', ( #59 ) );
#25 = PRODUCT_DEFINITION_SHAPE( 'NONE', 'NONE', #60 );
#26 = ADVANCED_BREP_SHAPE_REPRESENTATION( '_22050004007(architecture400)', ( #61, #62 ), #6 );
#29 = UNCERTAINTY_MEASURE_WITH_UNIT( LENGTH_MEASURE( 0.00100000000000000 ), #31, '', '' );
#31 =  ( CONVERSION_BASED_UNIT( 'MILLIMETRE', #65 )LENGTH_UNIT(  )NAMED_UNIT( #68 ) );
#32 =  ( NAMED_UNIT( #70 )PLANE_ANGLE_UNIT(  )SI_UNIT( $, .RADIAN. ) );
#33 =  ( NAMED_UNIT( #70 )SI_UNIT( $, .STERADIAN. )SOLID_ANGLE_UNIT(  ) );
#35 = PRESENTATION_STYLE_ASSIGNMENT( ( #76 ) );
#36 = ADVANCED_FACE( '', ( #77 ), #78, .F. );
#37 = PRESENTATION_STYLE_ASSIGNMENT( ( #79 ) );
#38 = ADVANCED_FACE( '', ( #80, #81 ), #82, .T. );
#39 = PRESENTATION_STYLE_ASSIGNMENT( ( #83 ) );
#40 = ADVANCED_FACE( '', ( #84, #85 ), #86, .F. );
#41 = PRESENTATION_STYLE_ASSIGNMENT( ( #87 ) );
#42 = ADVANCED_FACE( '', ( #88, #89 ), #90, .F. );
#43 = PRESENTATION_STYLE_ASSIGNMENT( ( #91 ) );
#44 = ADVANCED_FACE( '', ( #92 ), #93, .T. );
#45 = PRESENTATION_STYLE_ASSIGNMENT( ( #94 ) );
#46 = ADVANCED_FACE( '', ( #95, #96 ), #97, .T. );
#47 = PRESENTATION_STYLE_ASSIGNMENT( ( #98 ) );
#48 = ADVANCED_FACE( '', ( #99, #100 ), #101, .T. );
#49 = PRESENTATION_STYLE_ASSIGNMENT( ( #102 ) );
#50 = ADVANCED_FACE( '', ( #103, #104 ), #105, .F. );
#51 = PRESENTATION_STYLE_ASSIGNMENT( ( #106 ) );
#52 = ADVANCED_FACE( '', ( #107, #108 ), #109, .F. );
#53 = PRESENTATION_STYLE_ASSIGNMENT( ( #110 ) );
#54 = ADVANCED_FACE( '', ( #111, #112 ), #113, .F. );
#55 = PRESENTATION_STYLE_ASSIGNMENT( ( #114 ) );
#56 = ADVANCED_FACE( '', ( #115, #116 ), #117, .F. );
#57 = PRESENTATION_STYLE_ASSIGNMENT( ( #118 ) );
#58 = ADVANCED_FACE( '', ( #119, #120 ), #121, .T. );
#59 = PRODUCT( '_22050004007(architecture400)', '_22050004007(architecture400)', 'PART-_22050004007(architecture400)-DESC', ( #122 ) );
#60 = PRODUCT_DEFINITION( 'NONE', 'NONE', #123, #2 );
#61 = MANIFOLD_SOLID_BREP( '_22050004007(architecture400)', #124 );
#62 = AXIS2_PLACEMENT_3D( '', #125, #126, #127 );
#65 = LENGTH_MEASURE_WITH_UNIT( LENGTH_MEASURE( 1.00000000000000 ), #128 );
#68 = DIMENSIONAL_EXPONENTS( 1.00000000000000, 0.000000000000000, 0.000000000000000, 0.000000000000000, 0.000000000000000, 0.000000000000000, 0.000000000000000 );
#70 = DIMENSIONAL_EXPONENTS( 0.000000000000000, 0.000000000000000, 0.000000000000000, 0.000000000000000, 0.000000000000000, 0.000000000000000, 0.000000000000000 );
#76 = SURFACE_STYLE_USAGE( .BOTH., #129 );
#77 = FACE_OUTER_BOUND( '', #130, .T. );
#78 = SPHERICAL_SURFACE( '', #131, 17.8333333333000 );
#79 = SURFACE_STYLE_USAGE( .BOTH., #132 );
#80 = FACE_OUTER_BOUND( '', #133, .T. );
#81 = FACE_BOUND( '', #134, .T. );
#82 = PLANE( '', #135 );
#83 = SURFACE_STYLE_USAGE( .BOTH., #136 );
#84 = FACE_BOUND( '', #137, .T. );
#85 = FACE_OUTER_BOUND( '', #138, .T. );
#86 = PLANE( '', #139 );
#87 = SURFACE_STYLE_USAGE( .BOTH., #140 );
#88 = FACE_BOUND( '', #141, .T. );
#89 = FACE_OUTER_BOUND( '', #142, .T. );
#90 = PLANE( '', #143 );
#91 = SURFACE_STYLE_USAGE( .BOTH., #144 );
#92 = FACE_OUTER_BOUND( '', #145, .T. );
#93 = SPHERICAL_SURFACE( '', #146, 26.5000000000000 );
#94 = SURFACE_STYLE_USAGE( .BOTH., #147 );
#95 = FACE_OUTER_BOUND( '', #148, .T. );
#96 = FACE_OUTER_BOUND( '', #149, .T. );
#97 = CYLINDRICAL_SURFACE( '', #150, 26.5000000000000 );
#98 = SURFACE_STYLE_USAGE( .BOTH., #151 );
#99 = FACE_BOUND( '', #152, .T. );
#100 = FACE_OUTER_BOUND( '', #153, .T. );
#101 = PLANE( '', #154 );
#102 = SURFACE_STYLE_USAGE( .BOTH., #155 );
#103 = FACE_OUTER_BOUND( '', #156, .T. );
#104 = FACE_OUTER_BOUND( '', #157, .T. );
#105 = CYLINDRICAL_SURFACE( '', #158, 20.0000000000000 );
#106 = SURFACE_STYLE_USAGE( .BOTH., #159 );
#107 = FACE_OUTER_BOUND( '', #160, .T. );
#108 = FACE_OUTER_BOUND( '', #161, .T. );
#109 = CYLINDRICAL_SURFACE( '', #162, 17.8333333333000 );
#110 = SURFACE_STYLE_USAGE( .BOTH., #163 );
#111 = FACE_OUTER_BOUND( '', #164, .T. );
#112 = FACE_OUTER_BOUND( '', #165, .T. );
#113 = CYLINDRICAL_SURFACE( '', #166, 20.0000000000000 );
#114 = SURFACE_STYLE_USAGE( .BOTH., #167 );
#115 = FACE_OUTER_BOUND( '', #168, .T. );
#116 = FACE_OUTER_BOUND( '', #169, .T. );
#117 = CYLINDRICAL_SURFACE( '', #170, 17.8333333333000 );
#118 = SURFACE_STYLE_USAGE( .BOTH., #171 );
#119 = FACE_OUTER_BOUND( '', #172, .T. );
#120 = FACE_OUTER_BOUND( '', #173, .T. );
#121 = CYLINDRICAL_SURFACE( '', #174, 26.5000000000000 );
#122 = PRODUCT_CONTEXT( '', #22, 'mechanical' );
#123 = PRODUCT_DEFINITION_FORMATION_WITH_SPECIFIED_SOURCE( ' ', 'NONE', #59, .NOT_KNOWN. );
#124 = CLOSED_SHELL( '', ( #42, #58, #44, #46, #56, #48, #50, #40, #54, #38, #52, #36 ) );
#125 = CARTESIAN_POINT( '', ( 0.000000000000000, 0.000000000000000, 0.000000000000000 ) );
#126 = DIRECTION( '', ( 0.000000000000000, 0.000000000000000, 1.00000000000000 ) );
#127 = DIRECTION( '', ( 1.00000000000000, 0.000000000000000, 0.000000000000000 ) );
#128 =  ( LENGTH_UNIT(  )NAMED_UNIT( #68 )SI_UNIT( .MILLI., .METRE. ) );
#129 = SURFACE_SIDE_STYLE( '', ( #176 ) );
#130 = EDGE_LOOP( '', ( #177, #178 ) );
#131 = AXIS2_PLACEMENT_3D( '', #179, #180, #181 );
#132 = SURFACE_SIDE_STYLE( '', ( #182 ) );
#133 = EDGE_LOOP( '', ( #183 ) );
#134 = EDGE_LOOP( '', ( #184 ) );
#135 = AXIS2_PLACEMENT_3D( '', #185, #186, #187 );
#136 = SURFACE_SIDE_STYLE( '', ( #188 ) );
#137 = EDGE_LOOP( '', ( #189 ) );
#138 = EDGE_LOOP( '', ( #190 ) );
#139 = AXIS2_PLACEMENT_3D( '', #191, #192, #193 );
#140 = SURFACE_SIDE_STYLE( '', ( #194 ) );
#141 = EDGE_LOOP( '', ( #195 ) );
#142 = EDGE_LOOP( '', ( #196 ) );
#143 = AXIS2_PLACEMENT_3D( '', #197, #198, #199 );
#144 = SURFACE_SIDE_STYLE( '', ( #200 ) );
#145 = EDGE_LOOP( '', ( #201, #202 ) );
#146 = AXIS2_PLACEMENT_3D( '', #203, #204, #205 );
#147 = SURFACE_SIDE_STYLE( '', ( #206 ) );
#148 = EDGE_LOOP( '', ( #207 ) );
#149 = EDGE_LOOP( '', ( #208, #209 ) );
#150 = AXIS2_PLACEMENT_3D( '', #210, #211, #212 );
#151 = SURFACE_SIDE_STYLE( '', ( #213 ) );
#152 = EDGE_LOOP( '', ( #214 ) );
#153 = EDGE_LOOP( '', ( #215 ) );
#154 = AXIS2_PLACEMENT_3D( '', #216, #217, #218 );
#155 = SURFACE_SIDE_STYLE( '', ( #219 ) );
#156 = EDGE_LOOP( '', ( #220 ) );
#157 = EDGE_LOOP( '', ( #221 ) );
#158 = AXIS2_PLACEMENT_3D( '', #222, #223, #224 );
#159 = SURFACE_SIDE_STYLE( '', ( #225 ) );
#160 = EDGE_LOOP( '', ( #226 ) );
#161 = EDGE_LOOP( '', ( #227, #228 ) );
#162 = AXIS2_PLACEMENT_3D( '', #229, #230, #231 );
#163 = SURFACE_SIDE_STYLE( '', ( #232 ) );
#164 = EDGE_LOOP( '', ( #233 ) );
#165 = EDGE_LOOP( '', ( #234 ) );
#166 = AXIS2_PLACEMENT_3D( '', #235, #236, #237 );
#167 = SURFACE_SIDE_STYLE( '', ( #238 ) );
#168 = EDGE_LOOP( '', ( #239, #240 ) );
#169 = EDGE_LOOP( '', ( #241 ) );
#170 = AXIS2_PLACEMENT_3D( '', #242, #243, #244 );
#171 = SURFACE_SIDE_STYLE( '', ( #245 ) );
#172 = EDGE_LOOP( '', ( #246 ) );
#173 = EDGE_LOOP( '', ( #247, #248 ) );
#174 = AXIS2_PLACEMENT_3D( '', #249, #250, #251 );
#176 = SURFACE_STYLE_FILL_AREA( #252 );
#177 = ORIENTED_EDGE( '', *, *, #253, .F. );
#178 = ORIENTED_EDGE( '', *, *, #254, .T. );
#179 = CARTESIAN_POINT( '', ( 3.46944695195361E-15, 0.000000000000000, 12.5000000000000 ) );
#180 = DIRECTION( '', ( 0.000000000000000, 0.000000000000000, 1.00000000000000 ) );
#181 = DIRECTION( '', ( -1.00000000000000, 0.000000000000000, 0.000000000000000 ) );
#182 = SURFACE_STYLE_FILL_AREA( #255 );
#183 = ORIENTED_EDGE( '', *, *, #256, .T. );
#184 = ORIENTED_EDGE( '', *, *, #257, .F. );
#185 = CARTESIAN_POINT( '', ( -3.77123616632826, 0.000000000000000, 33.9489056959919 ) );
#186 = DIRECTION( '', ( 0.707106781186548, -0.000000000000000, 0.707106781186548 ) );
#187 = DIRECTION( '', ( 0.707106781186547, 0.000000000000000, -0.707106781186547 ) );
#188 = SURFACE_STYLE_FILL_AREA( #258 );
#189 = ORIENTED_EDGE( '', *, *, #259, .F. );
#190 = ORIENTED_EDGE( '', *, *, #260, .T. );
#191 = CARTESIAN_POINT( '', ( 5.65685424949238, 0.000000000000000, 55.6335136523794 ) );
#192 = DIRECTION( '', ( -0.707106781186548, 0.000000000000000, -0.707106781186547 ) );
#193 = DIRECTION( '', ( -0.707106781186547, 0.000000000000000, 0.707106781186548 ) );
#194 = SURFACE_STYLE_FILL_AREA( #261 );
#195 = ORIENTED_EDGE( '', *, *, #262, .F. );
#196 = ORIENTED_EDGE( '', *, *, #263, .F. );
#197 = CARTESIAN_POINT( '', ( 0.000000000000000, 0.000000000000000, -22.0000000000000 ) );
#198 = DIRECTION( '', ( 0.000000000000000, 0.000000000000000, 1.00000000000000 ) );
#199 = DIRECTION( '', ( 1.00000000000000, 0.000000000000000, -0.000000000000000 ) );
#200 = SURFACE_STYLE_FILL_AREA( #264 );
#201 = ORIENTED_EDGE( '', *, *, #265, .T. );
#202 = ORIENTED_EDGE( '', *, *, #266, .F. );
#203 = CARTESIAN_POINT( '', ( 1.73472347597681E-15, 0.000000000000000, 12.5000000000000 ) );
#204 = DIRECTION( '', ( 0.000000000000000, 0.000000000000000, 1.00000000000000 ) );
#205 = DIRECTION( '', ( -1.00000000000000, 0.000000000000000, 0.000000000000000 ) );
#206 = SURFACE_STYLE_FILL_AREA( #267 );
#207 = ORIENTED_EDGE( '', *, *, #260, .F. );
#208 = ORIENTED_EDGE( '', *, *, #266, .T. );
#209 = ORIENTED_EDGE( '', *, *, #268, .T. );
#210 = CARTESIAN_POINT( '', ( 24.3951839509359, 0.000000000000000, 36.8951839509359 ) );
#211 = DIRECTION( '', ( -0.707106781186548, 0.000000000000000, -0.707106781186548 ) );
#212 = DIRECTION( '', ( 0.707106781186548, 0.000000000000000, -0.707106781186548 ) );
#213 = SURFACE_STYLE_FILL_AREA( #269 );
#214 = ORIENTED_EDGE( '', *, *, #270, .T. );
#215 = ORIENTED_EDGE( '', *, *, #271, .F. );
#216 = CARTESIAN_POINT( '', ( -20.0000000000000, 0.000000000000000, 0.000000000000000 ) );
#217 = DIRECTION( '', ( 0.000000000000000, 0.000000000000000, -1.00000000000000 ) );
#218 = DIRECTION( '', ( -1.00000000000000, 0.000000000000000, 0.000000000000000 ) );
#219 = SURFACE_STYLE_FILL_AREA( #272 );
#220 = ORIENTED_EDGE( '', *, *, #271, .T. );
#221 = ORIENTED_EDGE( '', *, *, #262, .T. );
#222 = CARTESIAN_POINT( '', ( 0.000000000000000, 0.000000000000000, 30.3333333333333 ) );
#223 = DIRECTION( '', ( -0.000000000000000, 0.000000000000000, -1.00000000000000 ) );
#224 = DIRECTION( '', ( 1.00000000000000, 0.000000000000000, 0.000000000000000 ) );
#225 = SURFACE_STYLE_FILL_AREA( #273 );
#226 = ORIENTED_EDGE( '', *, *, #257, .T. );
#227 = ORIENTED_EDGE( '', *, *, #274, .F. );
#228 = ORIENTED_EDGE( '', *, *, #254, .F. );
#229 = CARTESIAN_POINT( '', ( 25.1022907321224, 0.000000000000000, 37.6022907321224 ) );
#230 = DIRECTION( '', ( -0.707106781186548, 0.000000000000000, -0.707106781186548 ) );
#231 = DIRECTION( '', ( 0.707106781186547, 0.000000000000000, -0.707106781186547 ) );
#232 = SURFACE_STYLE_FILL_AREA( #275 );
#233 = ORIENTED_EDGE( '', *, *, #259, .T. );
#234 = ORIENTED_EDGE( '', *, *, #256, .F. );
#235 = CARTESIAN_POINT( '', ( 25.1022907321224, 0.000000000000000, 37.6022907321224 ) );
#236 = DIRECTION( '', ( -0.707106781186548, 0.000000000000000, -0.707106781186548 ) );
#237 = DIRECTION( '', ( 0.707106781186547, 0.000000000000000, -0.707106781186547 ) );
#238 = SURFACE_STYLE_FILL_AREA( #276 );
#239 = ORIENTED_EDGE( '', *, *, #274, .T. );
#240 = ORIENTED_EDGE( '', *, *, #253, .T. );
#241 = ORIENTED_EDGE( '', *, *, #270, .F. );
#242 = CARTESIAN_POINT( '', ( 0.000000000000000, 0.000000000000000, 30.3333333333333 ) );
#243 = DIRECTION( '', ( -0.000000000000000, 0.000000000000000, -1.00000000000000 ) );
#244 = DIRECTION( '', ( 1.00000000000000, 0.000000000000000, 0.000000000000000 ) );
#245 = SURFACE_STYLE_FILL_AREA( #277 );
#246 = ORIENTED_EDGE( '', *, *, #263, .T. );
#247 = ORIENTED_EDGE( '', *, *, #268, .F. );
#248 = ORIENTED_EDGE( '', *, *, #265, .F. );
#249 = CARTESIAN_POINT( '', ( 0.000000000000000, 0.000000000000000, 12.5000000000000 ) );
#250 = DIRECTION( '', ( 0.000000000000000, -0.000000000000000, 1.00000000000000 ) );
#251 = DIRECTION( '', ( -1.00000000000000, 0.000000000000000, 0.000000000000000 ) );
#252 = FILL_AREA_STYLE( '', ( #278 ) );
#253 = EDGE_CURVE( '', #279, #280, #281, .T. );
#254 = EDGE_CURVE( '', #279, #280, #282, .T. );
#255 = FILL_AREA_STYLE( '', ( #283 ) );
#256 = EDGE_CURVE( '', #284, #284, #285, .T. );
#257 = EDGE_CURVE( '', #286, #286, #287, .T. );
#258 = FILL_AREA_STYLE( '', ( #288 ) );
#259 = EDGE_CURVE( '', #289, #289, #290, .F. );
#260 = EDGE_CURVE( '', #291, #291, #292, .T. );
#261 = FILL_AREA_STYLE( '', ( #293 ) );
#262 = EDGE_CURVE( '', #294, #294, #295, .F. );
#263 = EDGE_CURVE( '', #296, #296, #297, .T. );
#264 = FILL_AREA_STYLE( '', ( #298 ) );
#265 = EDGE_CURVE( '', #299, #300, #301, .T. );
#266 = EDGE_CURVE( '', #299, #300, #302, .T. );
#267 = FILL_AREA_STYLE( '', ( #303 ) );
#268 = EDGE_CURVE( '', #300, #299, #304, .F. );
#269 = FILL_AREA_STYLE( '', ( #305 ) );
#270 = EDGE_CURVE( '', #306, #306, #307, .T. );
#271 = EDGE_CURVE( '', #308, #308, #309, .T. );
#272 = FILL_AREA_STYLE( '', ( #310 ) );
#273 = FILL_AREA_STYLE( '', ( #311 ) );
#274 = EDGE_CURVE( '', #280, #279, #312, .T. );
#275 = FILL_AREA_STYLE( '', ( #313 ) );
#276 = FILL_AREA_STYLE( '', ( #314 ) );
#277 = FILL_AREA_STYLE( '', ( #315 ) );
#278 = FILL_AREA_STYLE_COLOUR( '', #316 );
#279 = VERTEX_POINT( '', #317 );
#280 = VERTEX_POINT( '', #318 );
#281 = CIRCLE( '', #319, 17.8333333333000 );
#282 = CIRCLE( '', #320, 17.8333333333000 );
#283 = FILL_AREA_STYLE_COLOUR( '', #321 );
#284 = VERTEX_POINT( '', #322 );
#285 = CIRCLE( '', #323, 20.0000000000000 );
#286 = VERTEX_POINT( '', #324 );
#287 = CIRCLE( '', #325, 17.8333333333000 );
#288 = FILL_AREA_STYLE_COLOUR( '', #326 );
#289 = VERTEX_POINT( '', #327 );
#290 = CIRCLE( '', #328, 20.0000000000000 );
#291 = VERTEX_POINT( '', #329 );
#292 = CIRCLE( '', #330, 26.5000000000000 );
#293 = FILL_AREA_STYLE_COLOUR( '', #331 );
#294 = VERTEX_POINT( '', #332 );
#295 = CIRCLE( '', #333, 20.0000000000000 );
#296 = VERTEX_POINT( '', #334 );
#297 = CIRCLE( '', #335, 26.5000000000000 );
#298 = FILL_AREA_STYLE_COLOUR( '', #336 );
#299 = VERTEX_POINT( '', #337 );
#300 = VERTEX_POINT( '', #338 );
#301 = CIRCLE( '', #339, 26.5000000000000 );
#302 = CIRCLE( '', #340, 26.5000000000000 );
#303 = FILL_AREA_STYLE_COLOUR( '', #341 );
#304 = ELLIPSE( '', #342, 28.6833933077000, 26.5000000000000 );
#305 = FILL_AREA_STYLE_COLOUR( '', #343 );
#306 = VERTEX_POINT( '', #344 );
#307 = CIRCLE( '', #345, 17.8333333333000 );
#308 = VERTEX_POINT( '', #346 );
#309 = CIRCLE( '', #347, 20.0000000000000 );
#310 = FILL_AREA_STYLE_COLOUR( '', #348 );
#311 = FILL_AREA_STYLE_COLOUR( '', #349 );
#312 = ELLIPSE( '', #350, 19.3026609052000, 17.8333333333000 );
#313 = FILL_AREA_STYLE_COLOUR( '', #351 );
#314 = FILL_AREA_STYLE_COLOUR( '', #352 );
#315 = FILL_AREA_STYLE_COLOUR( '', #353 );
#316 = COLOUR_RGB( '', 0.689999997600000, 0.689999997600000, 0.689999997600000 );
#317 = CARTESIAN_POINT( '', ( -3.96476932176247E-16, 17.8333333333333, 12.5000000000000 ) );
#318 = CARTESIAN_POINT( '', ( -5.05535468065861E-15, -17.8333333333333, 12.5000000000000 ) );
#319 = AXIS2_PLACEMENT_3D( '', #354, #355, #356 );
#320 = AXIS2_PLACEMENT_3D( '', #357, #358, #359 );
#321 = COLOUR_RGB( '', 0.689999997600000, 0.689999997600000, 0.689999997600000 );
#322 = CARTESIAN_POINT( '', ( 22.9809703885628, 0.000000000000000, 7.19669914110088 ) );
#323 = AXIS2_PLACEMENT_3D( '', #360, #361, #362 );
#324 = CARTESIAN_POINT( '', ( 21.4489056959919, 0.000000000000000, 8.72876383367173 ) );
#325 = AXIS2_PLACEMENT_3D( '', #363, #364, #365 );
#326 = COLOUR_RGB( '', 0.689999997600000, 0.689999997600000, 0.689999997600000 );
#327 = CARTESIAN_POINT( '', ( 10.2530483272049, 0.000000000000000, 51.0373195746668 ) );
#328 = AXIS2_PLACEMENT_3D( '', #366, #367, #368 );
#329 = CARTESIAN_POINT( '', ( 43.1335136523794, 0.000000000000000, 18.1568542494924 ) );
#330 = AXIS2_PLACEMENT_3D( '', #369, #370, #371 );
#331 = COLOUR_RGB( '', 0.689999997600000, 0.689999997600000, 0.689999997600000 );
#332 = CARTESIAN_POINT( '', ( 20.0000000000000, 0.000000000000000, -22.0000000000000 ) );
#333 = AXIS2_PLACEMENT_3D( '', #372, #373, #374 );
#334 = CARTESIAN_POINT( '', ( 26.5000000000000, 0.000000000000000, -22.0000000000000 ) );
#335 = AXIS2_PLACEMENT_3D( '', #375, #376, #377 );
#336 = COLOUR_RGB( '', 0.689999997600000, 0.689999997600000, 0.689999997600000 );
#337 = CARTESIAN_POINT( '', ( -2.52767734032930E-15, 26.5000000000000, 12.5000000000000 ) );
#338 = CARTESIAN_POINT( '', ( -3.23400454904754E-15, -26.5000000000000, 12.5000000000000 ) );
#339 = AXIS2_PLACEMENT_3D( '', #378, #379, #380 );
#340 = AXIS2_PLACEMENT_3D( '', #381, #382, #383 );
#341 = COLOUR_RGB( '', 0.689999997600000, 0.689999997600000, 0.689999997600000 );
#342 = AXIS2_PLACEMENT_3D( '', #384, #385, #386 );
#343 = COLOUR_RGB( '', 0.689999997600000, 0.689999997600000, 0.689999997600000 );
#344 = CARTESIAN_POINT( '', ( 17.8333333333333, 0.000000000000000, 0.000000000000000 ) );
#345 = AXIS2_PLACEMENT_3D( '', #387, #388, #389 );
#346 = CARTESIAN_POINT( '', ( 20.0000000000000, 0.000000000000000, 0.000000000000000 ) );
#347 = AXIS2_PLACEMENT_3D( '', #390, #391, #392 );
#348 = COLOUR_RGB( '', 0.689999997600000, 0.689999997600000, 0.689999997600000 );
#349 = COLOUR_RGB( '', 0.689999997600000, 0.689999997600000, 0.689999997600000 );
#350 = AXIS2_PLACEMENT_3D( '', #393, #394, #395 );
#351 = COLOUR_RGB( '', 0.689999997600000, 0.689999997600000, 0.689999997600000 );
#352 = COLOUR_RGB( '', 0.689999997600000, 0.689999997600000, 0.689999997600000 );
#353 = COLOUR_RGB( '', 0.689999997600000, 0.689999997600000, 0.689999997600000 );
#354 = CARTESIAN_POINT( '', ( 0.000000000000000, 0.000000000000000, 12.5000000000000 ) );
#355 = DIRECTION( '', ( 0.000000000000000, -0.000000000000000, 1.00000000000000 ) );
#356 = DIRECTION( '', ( 1.00000000000000, 0.000000000000000, 0.000000000000000 ) );
#357 = CARTESIAN_POINT( '', ( 0.000000000000000, 0.000000000000000, 12.5000000000000 ) );
#358 = DIRECTION( '', ( 0.707106781186548, -0.000000000000000, 0.707106781186548 ) );
#359 = DIRECTION( '', ( 0.707106781186548, 0.000000000000000, -0.707106781186548 ) );
#360 = CARTESIAN_POINT( '', ( 8.83883476483183, 0.000000000000000, 21.3388347648318 ) );
#361 = DIRECTION( '', ( 0.707106781186548, -0.000000000000000, 0.707106781186548 ) );
#362 = DIRECTION( '', ( 0.707106781186547, 0.000000000000000, -0.707106781186547 ) );
#363 = CARTESIAN_POINT( '', ( 8.83883476483183, 0.000000000000000, 21.3388347648318 ) );
#364 = DIRECTION( '', ( 0.707106781186548, -0.000000000000000, 0.707106781186548 ) );
#365 = DIRECTION( '', ( 0.707106781186547, 0.000000000000000, -0.707106781186547 ) );
#366 = CARTESIAN_POINT( '', ( 24.3951839509359, 0.000000000000000, 36.8951839509359 ) );
#367 = DIRECTION( '', ( -0.707106781186548, 0.000000000000000, -0.707106781186548 ) );
#368 = DIRECTION( '', ( -0.707106781186547, 0.000000000000000, 0.707106781186548 ) );
#369 = CARTESIAN_POINT( '', ( 24.3951839509359, 0.000000000000000, 36.8951839509359 ) );
#370 = DIRECTION( '', ( 0.707106781186548, -0.000000000000000, 0.707106781186548 ) );
#371 = DIRECTION( '', ( 0.707106781186548, 0.000000000000000, -0.707106781186548 ) );
#372 = CARTESIAN_POINT( '', ( 0.000000000000000, 0.000000000000000, -22.0000000000000 ) );
#373 = DIRECTION( '', ( 0.000000000000000, 0.000000000000000, 1.00000000000000 ) );
#374 = DIRECTION( '', ( 1.00000000000000, 0.000000000000000, -0.000000000000000 ) );
#375 = CARTESIAN_POINT( '', ( 0.000000000000000, 0.000000000000000, -22.0000000000000 ) );
#376 = DIRECTION( '', ( 0.000000000000000, 0.000000000000000, 1.00000000000000 ) );
#377 = DIRECTION( '', ( 1.00000000000000, 0.000000000000000, 0.000000000000000 ) );
#378 = CARTESIAN_POINT( '', ( 0.000000000000000, 0.000000000000000, 12.5000000000000 ) );
#379 = DIRECTION( '', ( 0.000000000000000, 0.000000000000000, 1.00000000000000 ) );
#380 = DIRECTION( '', ( 1.00000000000000, 0.000000000000000, 0.000000000000000 ) );
#381 = CARTESIAN_POINT( '', ( 8.67361737988404E-16, 0.000000000000000, 12.5000000000000 ) );
#382 = DIRECTION( '', ( 0.707106781186548, -0.000000000000000, 0.707106781186548 ) );
#383 = DIRECTION( '', ( 0.707106781186548, 0.000000000000000, -0.707106781186548 ) );
#384 = CARTESIAN_POINT( '', ( 0.000000000000000, 0.000000000000000, 12.5000000000000 ) );
#385 = DIRECTION( '', ( -0.382683432365090, 0.000000000000000, -0.923879532511287 ) );
#386 = DIRECTION( '', ( 0.923879532511287, 0.000000000000000, -0.382683432365090 ) );
#387 = CARTESIAN_POINT( '', ( 0.000000000000000, 0.000000000000000, 0.000000000000000 ) );
#388 = DIRECTION( '', ( 0.000000000000000, -0.000000000000000, 1.00000000000000 ) );
#389 = DIRECTION( '', ( 1.00000000000000, 0.000000000000000, 0.000000000000000 ) );
#390 = CARTESIAN_POINT( '', ( 0.000000000000000, 0.000000000000000, 0.000000000000000 ) );
#391 = DIRECTION( '', ( 0.000000000000000, -0.000000000000000, 1.00000000000000 ) );
#392 = DIRECTION( '', ( 1.00000000000000, 0.000000000000000, 0.000000000000000 ) );
#393 = CARTESIAN_POINT( '', ( -1.73472347597681E-15, 0.000000000000000, 12.5000000000000 ) );
#394 = DIRECTION( '', ( 0.382683432365090, 0.000000000000000, 0.923879532511287 ) );
#395 = DIRECTION( '', ( -0.923879532511287, 0.000000000000000, 0.382683432365090 ) );
ENDSEC;
END-ISO-10303-21;
