ISO-10303-21;
HEADER;
/* Generated by software containing ST-Developer
 * from STEP Tools, Inc. (www.steptools.com) 
 */

FILE_DESCRIPTION(
/* description */ (''),
/* implementation_level */ '2;1');

FILE_NAME(
/* name */ 'C:\\Users\\Gabriele\\Desktop\\catalogo\\RP20\\RP20075F.stp',

/* time_stamp */ '2016-10-18T15:08:28+02:00',
/* author */ ('Gabriele'),
/* organization */ (''),
/* preprocessor_version */ 'ST-DEVELOPER v16.5',
/* originating_system */ 'Autodesk Inventor 2017',
/* authorisation */ '');

FILE_SCHEMA (('AUTOMOTIVE_DESIGN { 1 0 10303 214 3 1 1 }'));
ENDSEC;

DATA;
#10=MECHANICAL_DESIGN_GEOMETRIC_PRESENTATION_REPRESENTATION('',(#13),#363);
#11=SHAPE_REPRESENTATION_RELATIONSHIP('SRR','None',#372,#12);
#12=ADVANCED_BREP_SHAPE_REPRESENTATION('',(#14),#362);
#13=STYLED_ITEM('',(#381),#14);
#14=MANIFOLD_SOLID_BREP('Solido1',#202);
#15=CONICAL_SURFACE('',#220,33.875,49.0104846705167);
#16=CONICAL_SURFACE('',#233,27.25,32.2547105268671);
#17=CYLINDRICAL_SURFACE('',#209,25.);
#18=CYLINDRICAL_SURFACE('',#213,30.25);
#19=CYLINDRICAL_SURFACE('',#218,37.5);
#20=CYLINDRICAL_SURFACE('',#227,31.5);
#21=CYLINDRICAL_SURFACE('',#231,24.);
#22=CYLINDRICAL_SURFACE('',#235,30.5);
#23=PLANE('',#207);
#24=PLANE('',#223);
#25=PLANE('',#229);
#26=PLANE('',#237);
#27=FACE_BOUND('',#62,.T.);
#28=FACE_BOUND('',#64,.T.);
#29=FACE_BOUND('',#66,.T.);
#30=FACE_BOUND('',#68,.T.);
#31=FACE_BOUND('',#70,.T.);
#32=FACE_BOUND('',#72,.T.);
#33=FACE_BOUND('',#74,.T.);
#34=FACE_BOUND('',#76,.T.);
#35=FACE_BOUND('',#78,.T.);
#36=FACE_BOUND('',#80,.T.);
#37=FACE_BOUND('',#82,.T.);
#38=FACE_BOUND('',#84,.T.);
#39=FACE_BOUND('',#86,.T.);
#40=FACE_BOUND('',#88,.T.);
#41=FACE_BOUND('',#90,.T.);
#42=FACE_BOUND('',#92,.T.);
#43=FACE_BOUND('',#94,.T.);
#44=FACE_OUTER_BOUND('',#61,.T.);
#45=FACE_OUTER_BOUND('',#63,.T.);
#46=FACE_OUTER_BOUND('',#65,.T.);
#47=FACE_OUTER_BOUND('',#67,.T.);
#48=FACE_OUTER_BOUND('',#69,.T.);
#49=FACE_OUTER_BOUND('',#71,.T.);
#50=FACE_OUTER_BOUND('',#73,.T.);
#51=FACE_OUTER_BOUND('',#75,.T.);
#52=FACE_OUTER_BOUND('',#77,.T.);
#53=FACE_OUTER_BOUND('',#79,.T.);
#54=FACE_OUTER_BOUND('',#81,.T.);
#55=FACE_OUTER_BOUND('',#83,.T.);
#56=FACE_OUTER_BOUND('',#85,.T.);
#57=FACE_OUTER_BOUND('',#87,.T.);
#58=FACE_OUTER_BOUND('',#89,.T.);
#59=FACE_OUTER_BOUND('',#91,.T.);
#60=FACE_OUTER_BOUND('',#93,.T.);
#61=EDGE_LOOP('',(#146));
#62=EDGE_LOOP('',(#147));
#63=EDGE_LOOP('',(#148));
#64=EDGE_LOOP('',(#149));
#65=EDGE_LOOP('',(#150));
#66=EDGE_LOOP('',(#151));
#67=EDGE_LOOP('',(#152));
#68=EDGE_LOOP('',(#153));
#69=EDGE_LOOP('',(#154));
#70=EDGE_LOOP('',(#155));
#71=EDGE_LOOP('',(#156));
#72=EDGE_LOOP('',(#157));
#73=EDGE_LOOP('',(#158));
#74=EDGE_LOOP('',(#159));
#75=EDGE_LOOP('',(#160));
#76=EDGE_LOOP('',(#161));
#77=EDGE_LOOP('',(#162));
#78=EDGE_LOOP('',(#163));
#79=EDGE_LOOP('',(#164));
#80=EDGE_LOOP('',(#165));
#81=EDGE_LOOP('',(#166));
#82=EDGE_LOOP('',(#167));
#83=EDGE_LOOP('',(#168));
#84=EDGE_LOOP('',(#169));
#85=EDGE_LOOP('',(#170));
#86=EDGE_LOOP('',(#171));
#87=EDGE_LOOP('',(#172));
#88=EDGE_LOOP('',(#173));
#89=EDGE_LOOP('',(#174));
#90=EDGE_LOOP('',(#175));
#91=EDGE_LOOP('',(#176));
#92=EDGE_LOOP('',(#177));
#93=EDGE_LOOP('',(#178));
#94=EDGE_LOOP('',(#179));
#95=CIRCLE('',#205,25.5);
#96=CIRCLE('',#206,25.);
#97=CIRCLE('',#208,29.75);
#98=CIRCLE('',#210,25.);
#99=CIRCLE('',#212,30.25);
#100=CIRCLE('',#214,30.25);
#101=CIRCLE('',#216,37.5);
#102=CIRCLE('',#217,37.3279604560876);
#103=CIRCLE('',#219,37.5);
#104=CIRCLE('',#222,37.);
#105=CIRCLE('',#224,32.);
#106=CIRCLE('',#226,31.5);
#107=CIRCLE('',#228,31.5);
#108=CIRCLE('',#230,24.);
#109=CIRCLE('',#232,24.);
#110=CIRCLE('',#234,30.5);
#111=CIRCLE('',#236,30.5);
#112=VERTEX_POINT('',#310);
#113=VERTEX_POINT('',#312);
#114=VERTEX_POINT('',#315);
#115=VERTEX_POINT('',#318);
#116=VERTEX_POINT('',#321);
#117=VERTEX_POINT('',#324);
#118=VERTEX_POINT('',#327);
#119=VERTEX_POINT('',#329);
#120=VERTEX_POINT('',#332);
#121=VERTEX_POINT('',#336);
#122=VERTEX_POINT('',#339);
#123=VERTEX_POINT('',#342);
#124=VERTEX_POINT('',#345);
#125=VERTEX_POINT('',#348);
#126=VERTEX_POINT('',#351);
#127=VERTEX_POINT('',#354);
#128=VERTEX_POINT('',#357);
#129=EDGE_CURVE('',#112,#112,#95,.T.);
#130=EDGE_CURVE('',#113,#113,#96,.T.);
#131=EDGE_CURVE('',#114,#114,#97,.T.);
#132=EDGE_CURVE('',#115,#115,#98,.T.);
#133=EDGE_CURVE('',#116,#116,#99,.T.);
#134=EDGE_CURVE('',#117,#117,#100,.T.);
#135=EDGE_CURVE('',#118,#118,#101,.T.);
#136=EDGE_CURVE('',#119,#119,#102,.T.);
#137=EDGE_CURVE('',#120,#120,#103,.T.);
#138=EDGE_CURVE('',#121,#121,#104,.T.);
#139=EDGE_CURVE('',#122,#122,#105,.T.);
#140=EDGE_CURVE('',#123,#123,#106,.T.);
#141=EDGE_CURVE('',#124,#124,#107,.T.);
#142=EDGE_CURVE('',#125,#125,#108,.T.);
#143=EDGE_CURVE('',#126,#126,#109,.T.);
#144=EDGE_CURVE('',#127,#127,#110,.T.);
#145=EDGE_CURVE('',#128,#128,#111,.T.);
#146=ORIENTED_EDGE('',*,*,#129,.T.);
#147=ORIENTED_EDGE('',*,*,#130,.T.);
#148=ORIENTED_EDGE('',*,*,#131,.F.);
#149=ORIENTED_EDGE('',*,*,#129,.F.);
#150=ORIENTED_EDGE('',*,*,#132,.F.);
#151=ORIENTED_EDGE('',*,*,#130,.F.);
#152=ORIENTED_EDGE('',*,*,#133,.T.);
#153=ORIENTED_EDGE('',*,*,#131,.T.);
#154=ORIENTED_EDGE('',*,*,#134,.T.);
#155=ORIENTED_EDGE('',*,*,#133,.F.);
#156=ORIENTED_EDGE('',*,*,#135,.T.);
#157=ORIENTED_EDGE('',*,*,#136,.T.);
#158=ORIENTED_EDGE('',*,*,#137,.F.);
#159=ORIENTED_EDGE('',*,*,#135,.F.);
#160=ORIENTED_EDGE('',*,*,#134,.F.);
#161=ORIENTED_EDGE('',*,*,#136,.F.);
#162=ORIENTED_EDGE('',*,*,#138,.T.);
#163=ORIENTED_EDGE('',*,*,#137,.T.);
#164=ORIENTED_EDGE('',*,*,#138,.F.);
#165=ORIENTED_EDGE('',*,*,#139,.F.);
#166=ORIENTED_EDGE('',*,*,#140,.T.);
#167=ORIENTED_EDGE('',*,*,#139,.T.);
#168=ORIENTED_EDGE('',*,*,#141,.T.);
#169=ORIENTED_EDGE('',*,*,#140,.F.);
#170=ORIENTED_EDGE('',*,*,#132,.T.);
#171=ORIENTED_EDGE('',*,*,#142,.F.);
#172=ORIENTED_EDGE('',*,*,#143,.F.);
#173=ORIENTED_EDGE('',*,*,#142,.T.);
#174=ORIENTED_EDGE('',*,*,#144,.F.);
#175=ORIENTED_EDGE('',*,*,#143,.T.);
#176=ORIENTED_EDGE('',*,*,#145,.F.);
#177=ORIENTED_EDGE('',*,*,#144,.T.);
#178=ORIENTED_EDGE('',*,*,#141,.F.);
#179=ORIENTED_EDGE('',*,*,#145,.T.);
#180=TOROIDAL_SURFACE('',#204,25.5,0.5);
#181=TOROIDAL_SURFACE('',#211,29.75,0.5);
#182=TOROIDAL_SURFACE('',#215,37.,0.5);
#183=TOROIDAL_SURFACE('',#221,37.,0.5);
#184=TOROIDAL_SURFACE('',#225,32.,0.5);
#185=ADVANCED_FACE('',(#44,#27),#180,.T.);
#186=ADVANCED_FACE('',(#45,#28),#23,.T.);
#187=ADVANCED_FACE('',(#46,#29),#17,.F.);
#188=ADVANCED_FACE('',(#47,#30),#181,.T.);
#189=ADVANCED_FACE('',(#48,#31),#18,.T.);
#190=ADVANCED_FACE('',(#49,#32),#182,.T.);
#191=ADVANCED_FACE('',(#50,#33),#19,.T.);
#192=ADVANCED_FACE('',(#51,#34),#15,.T.);
#193=ADVANCED_FACE('',(#52,#35),#183,.T.);
#194=ADVANCED_FACE('',(#53,#36),#24,.T.);
#195=ADVANCED_FACE('',(#54,#37),#184,.T.);
#196=ADVANCED_FACE('',(#55,#38),#20,.F.);
#197=ADVANCED_FACE('',(#56,#39),#25,.T.);
#198=ADVANCED_FACE('',(#57,#40),#21,.F.);
#199=ADVANCED_FACE('',(#58,#41),#16,.F.);
#200=ADVANCED_FACE('',(#59,#42),#22,.F.);
#201=ADVANCED_FACE('',(#60,#43),#26,.T.);
#202=CLOSED_SHELL('',(#185,#186,#187,#188,#189,#190,#191,#192,#193,#194,
#195,#196,#197,#198,#199,#200,#201));
#203=AXIS2_PLACEMENT_3D('placement',#308,#238,#239);
#204=AXIS2_PLACEMENT_3D('',#309,#240,#241);
#205=AXIS2_PLACEMENT_3D('',#311,#242,#243);
#206=AXIS2_PLACEMENT_3D('',#313,#244,#245);
#207=AXIS2_PLACEMENT_3D('',#314,#246,#247);
#208=AXIS2_PLACEMENT_3D('',#316,#248,#249);
#209=AXIS2_PLACEMENT_3D('',#317,#250,#251);
#210=AXIS2_PLACEMENT_3D('',#319,#252,#253);
#211=AXIS2_PLACEMENT_3D('',#320,#254,#255);
#212=AXIS2_PLACEMENT_3D('',#322,#256,#257);
#213=AXIS2_PLACEMENT_3D('',#323,#258,#259);
#214=AXIS2_PLACEMENT_3D('',#325,#260,#261);
#215=AXIS2_PLACEMENT_3D('',#326,#262,#263);
#216=AXIS2_PLACEMENT_3D('',#328,#264,#265);
#217=AXIS2_PLACEMENT_3D('',#330,#266,#267);
#218=AXIS2_PLACEMENT_3D('',#331,#268,#269);
#219=AXIS2_PLACEMENT_3D('',#333,#270,#271);
#220=AXIS2_PLACEMENT_3D('',#334,#272,#273);
#221=AXIS2_PLACEMENT_3D('',#335,#274,#275);
#222=AXIS2_PLACEMENT_3D('',#337,#276,#277);
#223=AXIS2_PLACEMENT_3D('',#338,#278,#279);
#224=AXIS2_PLACEMENT_3D('',#340,#280,#281);
#225=AXIS2_PLACEMENT_3D('',#341,#282,#283);
#226=AXIS2_PLACEMENT_3D('',#343,#284,#285);
#227=AXIS2_PLACEMENT_3D('',#344,#286,#287);
#228=AXIS2_PLACEMENT_3D('',#346,#288,#289);
#229=AXIS2_PLACEMENT_3D('',#347,#290,#291);
#230=AXIS2_PLACEMENT_3D('',#349,#292,#293);
#231=AXIS2_PLACEMENT_3D('',#350,#294,#295);
#232=AXIS2_PLACEMENT_3D('',#352,#296,#297);
#233=AXIS2_PLACEMENT_3D('',#353,#298,#299);
#234=AXIS2_PLACEMENT_3D('',#355,#300,#301);
#235=AXIS2_PLACEMENT_3D('',#356,#302,#303);
#236=AXIS2_PLACEMENT_3D('',#358,#304,#305);
#237=AXIS2_PLACEMENT_3D('',#359,#306,#307);
#238=DIRECTION('axis',(0.,0.,1.));
#239=DIRECTION('refdir',(1.,0.,0.));
#240=DIRECTION('center_axis',(-1.,0.,0.));
#241=DIRECTION('ref_axis',(0.,0.,1.));
#242=DIRECTION('center_axis',(-1.,0.,0.));
#243=DIRECTION('ref_axis',(0.,1.,6.12323399573677E-17));
#244=DIRECTION('center_axis',(1.,0.,0.));
#245=DIRECTION('ref_axis',(0.,1.,6.12323399573677E-17));
#246=DIRECTION('center_axis',(-1.,0.,0.));
#247=DIRECTION('ref_axis',(0.,0.,1.));
#248=DIRECTION('center_axis',(1.,0.,0.));
#249=DIRECTION('ref_axis',(0.,1.,6.12323399573676E-17));
#250=DIRECTION('center_axis',(-1.,0.,0.));
#251=DIRECTION('ref_axis',(0.,-1.,0.));
#252=DIRECTION('center_axis',(-1.,0.,0.));
#253=DIRECTION('ref_axis',(0.,0.,1.));
#254=DIRECTION('center_axis',(-1.,0.,0.));
#255=DIRECTION('ref_axis',(0.,0.,1.));
#256=DIRECTION('center_axis',(-1.,0.,0.));
#257=DIRECTION('ref_axis',(0.,1.,6.12323399573677E-17));
#258=DIRECTION('center_axis',(-1.,0.,0.));
#259=DIRECTION('ref_axis',(0.,-1.,0.));
#260=DIRECTION('center_axis',(-1.,0.,0.));
#261=DIRECTION('ref_axis',(0.,0.,1.));
#262=DIRECTION('center_axis',(-1.,0.,0.));
#263=DIRECTION('ref_axis',(0.,0.,1.));
#264=DIRECTION('center_axis',(-1.,0.,0.));
#265=DIRECTION('ref_axis',(0.,1.,6.12323399573677E-17));
#266=DIRECTION('center_axis',(1.,0.,0.));
#267=DIRECTION('ref_axis',(0.,1.,-3.06161699786838E-17));
#268=DIRECTION('center_axis',(-1.,0.,0.));
#269=DIRECTION('ref_axis',(0.,-1.,0.));
#270=DIRECTION('center_axis',(1.,0.,0.));
#271=DIRECTION('ref_axis',(0.,1.,6.12323399573677E-17));
#272=DIRECTION('center_axis',(1.,0.,0.));
#273=DIRECTION('ref_axis',(0.,-1.,0.));
#274=DIRECTION('center_axis',(-1.,0.,0.));
#275=DIRECTION('ref_axis',(0.,0.,1.));
#276=DIRECTION('center_axis',(-1.,0.,0.));
#277=DIRECTION('ref_axis',(0.,1.,6.12323399573677E-17));
#278=DIRECTION('center_axis',(1.,0.,0.));
#279=DIRECTION('ref_axis',(0.,0.,-1.));
#280=DIRECTION('center_axis',(1.,0.,0.));
#281=DIRECTION('ref_axis',(0.,1.,6.12323399573677E-17));
#282=DIRECTION('center_axis',(-1.,0.,0.));
#283=DIRECTION('ref_axis',(0.,0.,1.));
#284=DIRECTION('center_axis',(-1.,0.,0.));
#285=DIRECTION('ref_axis',(0.,1.,6.12323399573677E-17));
#286=DIRECTION('center_axis',(-1.,0.,0.));
#287=DIRECTION('ref_axis',(0.,-1.,0.));
#288=DIRECTION('center_axis',(-1.,0.,0.));
#289=DIRECTION('ref_axis',(0.,0.,1.));
#290=DIRECTION('center_axis',(-1.,0.,0.));
#291=DIRECTION('ref_axis',(0.,0.,1.));
#292=DIRECTION('center_axis',(-1.,0.,0.));
#293=DIRECTION('ref_axis',(0.,0.,1.));
#294=DIRECTION('center_axis',(-1.,0.,0.));
#295=DIRECTION('ref_axis',(0.,-1.,0.));
#296=DIRECTION('center_axis',(-1.,0.,0.));
#297=DIRECTION('ref_axis',(0.,0.,1.));
#298=DIRECTION('center_axis',(1.,0.,0.));
#299=DIRECTION('ref_axis',(0.,-1.,0.));
#300=DIRECTION('center_axis',(-1.,0.,0.));
#301=DIRECTION('ref_axis',(0.,0.,1.));
#302=DIRECTION('center_axis',(-1.,0.,0.));
#303=DIRECTION('ref_axis',(0.,-1.,0.));
#304=DIRECTION('center_axis',(-1.,0.,0.));
#305=DIRECTION('ref_axis',(0.,0.,1.));
#306=DIRECTION('center_axis',(1.,0.,0.));
#307=DIRECTION('ref_axis',(0.,0.,-1.));
#308=CARTESIAN_POINT('',(0.,0.,0.));
#309=CARTESIAN_POINT('Origin',(-61.5074273118976,0.,0.));
#310=CARTESIAN_POINT('',(-62.0074273118976,-25.5,1.56142466891288E-15));
#311=CARTESIAN_POINT('Origin',(-62.0074273118976,0.,0.));
#312=CARTESIAN_POINT('',(-61.5074273118976,-25.,-4.59242549680258E-15));
#313=CARTESIAN_POINT('Origin',(-61.5074273118976,0.,0.));
#314=CARTESIAN_POINT('Origin',(-62.0074273118976,-25.,0.));
#315=CARTESIAN_POINT('',(-62.0074273118976,-29.75,-5.46498634119506E-15));
#316=CARTESIAN_POINT('Origin',(-62.0074273118976,0.,0.));
#317=CARTESIAN_POINT('Origin',(-46.5074273118976,0.,0.));
#318=CARTESIAN_POINT('',(-31.0074273118976,-25.,0.));
#319=CARTESIAN_POINT('Origin',(-31.0074273118976,0.,0.));
#320=CARTESIAN_POINT('Origin',(-61.5074273118976,0.,0.));
#321=CARTESIAN_POINT('',(-61.5074273118976,-30.25,1.85227828371037E-15));
#322=CARTESIAN_POINT('Origin',(-61.5074273118976,0.,0.));
#323=CARTESIAN_POINT('Origin',(-46.5074273118976,0.,0.));
#324=CARTESIAN_POINT('',(-31.0074273118976,-30.25,0.));
#325=CARTESIAN_POINT('Origin',(-31.0074273118976,0.,0.));
#326=CARTESIAN_POINT('Origin',(-24.4795089325825,0.,0.));
#327=CARTESIAN_POINT('',(-24.4795089325825,-37.5,2.29621274840129E-15));
#328=CARTESIAN_POINT('Origin',(-24.4795089325825,0.,0.));
#329=CARTESIAN_POINT('',(-24.8569237431595,-37.3279604560876,-6.85703509368699E-15));
#330=CARTESIAN_POINT('Origin',(-24.8569237431595,0.,-3.4285175468435E-15));
#331=CARTESIAN_POINT('Origin',(-2.70742731189763,0.,0.));
#332=CARTESIAN_POINT('',(18.7925726881024,-37.5,-6.88863824520386E-15));
#333=CARTESIAN_POINT('Origin',(18.7925726881024,0.,0.));
#334=CARTESIAN_POINT('Origin',(-27.8574273118976,0.,0.));
#335=CARTESIAN_POINT('Origin',(18.7925726881024,0.,0.));
#336=CARTESIAN_POINT('',(19.2925726881024,-37.,2.2655965784226E-15));
#337=CARTESIAN_POINT('Origin',(19.2925726881024,0.,0.));
#338=CARTESIAN_POINT('Origin',(19.2925726881024,-37.5,0.));
#339=CARTESIAN_POINT('',(19.2925726881024,-32.,-5.8783046359073E-15));
#340=CARTESIAN_POINT('Origin',(19.2925726881024,0.,0.));
#341=CARTESIAN_POINT('Origin',(18.7925726881024,0.,0.));
#342=CARTESIAN_POINT('',(18.7925726881024,-31.5,1.92881870865708E-15));
#343=CARTESIAN_POINT('Origin',(18.7925726881024,0.,0.));
#344=CARTESIAN_POINT('Origin',(0.292572688102368,0.,0.));
#345=CARTESIAN_POINT('',(-18.7074273118976,-31.5,0.));
#346=CARTESIAN_POINT('Origin',(-18.7074273118976,0.,0.));
#347=CARTESIAN_POINT('Origin',(-31.0074273118976,-24.,0.));
#348=CARTESIAN_POINT('',(-31.0074273118976,-24.,0.));
#349=CARTESIAN_POINT('Origin',(-31.0074273118976,0.,0.));
#350=CARTESIAN_POINT('Origin',(-30.5074273118976,0.,0.));
#351=CARTESIAN_POINT('',(-30.0074273118976,-24.,0.));
#352=CARTESIAN_POINT('Origin',(-30.0074273118976,0.,0.));
#353=CARTESIAN_POINT('Origin',(-24.8574273118976,0.,0.));
#354=CARTESIAN_POINT('',(-19.7074273118976,-30.5,0.));
#355=CARTESIAN_POINT('Origin',(-19.7074273118976,0.,0.));
#356=CARTESIAN_POINT('Origin',(-19.2074273118976,0.,0.));
#357=CARTESIAN_POINT('',(-18.7074273118976,-30.5,0.));
#358=CARTESIAN_POINT('Origin',(-18.7074273118976,0.,0.));
#359=CARTESIAN_POINT('Origin',(-18.7074273118976,-31.5,0.));
#360=UNCERTAINTY_MEASURE_WITH_UNIT(LENGTH_MEASURE(0.01),#364,
'DISTANCE_ACCURACY_VALUE',
'Maximum model space distance between geometric entities at asserted c
onnectivities');
#361=UNCERTAINTY_MEASURE_WITH_UNIT(LENGTH_MEASURE(1.E-6),#364,
'DISTANCE_ACCURACY_VALUE',
'Maximum model space distance between geometric entities at asserted c
onnectivities');
#362=(
GEOMETRIC_REPRESENTATION_CONTEXT(3)
GLOBAL_UNCERTAINTY_ASSIGNED_CONTEXT((#360))
GLOBAL_UNIT_ASSIGNED_CONTEXT((#364,#367,#365))
REPRESENTATION_CONTEXT('','3D')
);
#363=(
GEOMETRIC_REPRESENTATION_CONTEXT(3)
GLOBAL_UNCERTAINTY_ASSIGNED_CONTEXT((#361))
GLOBAL_UNIT_ASSIGNED_CONTEXT((#364,#367,#365))
REPRESENTATION_CONTEXT('','3D')
);
#364=(
LENGTH_UNIT()
NAMED_UNIT(*)
SI_UNIT(.MILLI.,.METRE.)
);
#365=(
NAMED_UNIT(*)
SI_UNIT($,.STERADIAN.)
SOLID_ANGLE_UNIT()
);
#366=DIMENSIONAL_EXPONENTS(0.,0.,0.,0.,0.,0.,0.);
#367=(
CONVERSION_BASED_UNIT('degree',#369)
NAMED_UNIT(#366)
PLANE_ANGLE_UNIT()
);
#368=(
NAMED_UNIT(*)
PLANE_ANGLE_UNIT()
SI_UNIT($,.RADIAN.)
);
#369=PLANE_ANGLE_MEASURE_WITH_UNIT(PLANE_ANGLE_MEASURE(0.01745329252),#368);
#370=SHAPE_DEFINITION_REPRESENTATION(#371,#372);
#371=PRODUCT_DEFINITION_SHAPE('',$,#374);
#372=SHAPE_REPRESENTATION('',(#203),#362);
#373=PRODUCT_DEFINITION_CONTEXT('part definition',#378,'design');
#374=PRODUCT_DEFINITION('RP20075F','RP20075F',#375,#373);
#375=PRODUCT_DEFINITION_FORMATION('',$,#380);
#376=PRODUCT_RELATED_PRODUCT_CATEGORY('RP20075F','RP20075F',(#380));
#377=APPLICATION_PROTOCOL_DEFINITION('international standard',
'automotive_design',2009,#378);
#378=APPLICATION_CONTEXT(
'Core Data for Automotive Mechanical Design Process');
#379=PRODUCT_CONTEXT('part definition',#378,'mechanical');
#380=PRODUCT('RP20075F','RP20075F',$,(#379));
#381=PRESENTATION_STYLE_ASSIGNMENT((#382));
#382=SURFACE_STYLE_USAGE(.BOTH.,#383);
#383=SURFACE_SIDE_STYLE('',(#384));
#384=SURFACE_STYLE_FILL_AREA(#385);
#385=FILL_AREA_STYLE('',(#386));
#386=FILL_AREA_STYLE_COLOUR('',#387);
#387=COLOUR_RGB('',0.8,0.8,0.8);
ENDSEC;
END-ISO-10303-21;
