ISO-10303-21;
HEADER;
/* Generated by software containing ST-Developer
 * from STEP Tools, Inc. (www.steptools.com) 
 */

FILE_DESCRIPTION(
/* description */ (''),
/* implementation_level */ '2;1');

FILE_NAME(
/* name */ 'C:\\Users\\Gabriele\\Desktop\\disegni 3D\\SO10\\SO102500.s
tp',
/* time_stamp */ '2017-01-24T16:41:45+01:00',
/* author */ ('Gabriele'),
/* organization */ (''),
/* preprocessor_version */ 'ST-DEVELOPER v16.5',
/* originating_system */ 'Autodesk Inventor 2017',
/* authorisation */ '');

FILE_SCHEMA (('AUTOMOTIVE_DESIGN { 1 0 10303 214 3 1 1 }'));
ENDSEC;

DATA;
#10=MECHANICAL_DESIGN_GEOMETRIC_PRESENTATION_REPRESENTATION('',(#13),#243);
#11=SHAPE_REPRESENTATION_RELATIONSHIP('SRR','None',#252,#12);
#12=ADVANCED_BREP_SHAPE_REPRESENTATION('',(#14),#242);
#13=STYLED_ITEM('',(#261),#14);
#14=MANIFOLD_SOLID_BREP('Solido1',#136);
#15=CYLINDRICAL_SURFACE('',#143,125.);
#16=CYLINDRICAL_SURFACE('',#148,143.5);
#17=CYLINDRICAL_SURFACE('',#153,124.);
#18=CYLINDRICAL_SURFACE('',#156,125.);
#19=PLANE('',#141);
#20=PLANE('',#150);
#21=PLANE('',#158);
#22=PLANE('',#159);
#23=FACE_BOUND('',#46,.T.);
#24=FACE_BOUND('',#48,.T.);
#25=FACE_BOUND('',#50,.T.);
#26=FACE_BOUND('',#52,.T.);
#27=FACE_BOUND('',#54,.T.);
#28=FACE_BOUND('',#56,.T.);
#29=FACE_BOUND('',#58,.T.);
#30=FACE_BOUND('',#60,.T.);
#31=FACE_BOUND('',#62,.T.);
#32=FACE_BOUND('',#64,.T.);
#33=FACE_BOUND('',#66,.T.);
#34=FACE_OUTER_BOUND('',#45,.T.);
#35=FACE_OUTER_BOUND('',#47,.T.);
#36=FACE_OUTER_BOUND('',#49,.T.);
#37=FACE_OUTER_BOUND('',#51,.T.);
#38=FACE_OUTER_BOUND('',#53,.T.);
#39=FACE_OUTER_BOUND('',#55,.T.);
#40=FACE_OUTER_BOUND('',#57,.T.);
#41=FACE_OUTER_BOUND('',#59,.T.);
#42=FACE_OUTER_BOUND('',#61,.T.);
#43=FACE_OUTER_BOUND('',#63,.T.);
#44=FACE_OUTER_BOUND('',#65,.T.);
#45=EDGE_LOOP('',(#100));
#46=EDGE_LOOP('',(#101));
#47=EDGE_LOOP('',(#102));
#48=EDGE_LOOP('',(#103));
#49=EDGE_LOOP('',(#104));
#50=EDGE_LOOP('',(#105));
#51=EDGE_LOOP('',(#106));
#52=EDGE_LOOP('',(#107));
#53=EDGE_LOOP('',(#108));
#54=EDGE_LOOP('',(#109));
#55=EDGE_LOOP('',(#110));
#56=EDGE_LOOP('',(#111));
#57=EDGE_LOOP('',(#112));
#58=EDGE_LOOP('',(#113));
#59=EDGE_LOOP('',(#114));
#60=EDGE_LOOP('',(#115));
#61=EDGE_LOOP('',(#116));
#62=EDGE_LOOP('',(#117));
#63=EDGE_LOOP('',(#118));
#64=EDGE_LOOP('',(#119));
#65=EDGE_LOOP('',(#120));
#66=EDGE_LOOP('',(#121));
#67=CIRCLE('',#139,125.);
#68=CIRCLE('',#140,125.5);
#69=CIRCLE('',#142,143.);
#70=CIRCLE('',#144,125.);
#71=CIRCLE('',#146,143.5);
#72=CIRCLE('',#147,143.);
#73=CIRCLE('',#149,143.5);
#74=CIRCLE('',#151,125.);
#75=CIRCLE('',#154,124.);
#76=CIRCLE('',#155,124.);
#77=CIRCLE('',#157,125.);
#78=VERTEX_POINT('',#208);
#79=VERTEX_POINT('',#210);
#80=VERTEX_POINT('',#213);
#81=VERTEX_POINT('',#216);
#82=VERTEX_POINT('',#219);
#83=VERTEX_POINT('',#221);
#84=VERTEX_POINT('',#224);
#85=VERTEX_POINT('',#227);
#86=VERTEX_POINT('',#231);
#87=VERTEX_POINT('',#233);
#88=VERTEX_POINT('',#236);
#89=EDGE_CURVE('',#78,#78,#67,.T.);
#90=EDGE_CURVE('',#79,#79,#68,.T.);
#91=EDGE_CURVE('',#80,#80,#69,.T.);
#92=EDGE_CURVE('',#81,#81,#70,.T.);
#93=EDGE_CURVE('',#82,#82,#71,.T.);
#94=EDGE_CURVE('',#83,#83,#72,.T.);
#95=EDGE_CURVE('',#84,#84,#73,.T.);
#96=EDGE_CURVE('',#85,#85,#74,.T.);
#97=EDGE_CURVE('',#86,#86,#75,.T.);
#98=EDGE_CURVE('',#87,#87,#76,.T.);
#99=EDGE_CURVE('',#88,#88,#77,.T.);
#100=ORIENTED_EDGE('',*,*,#89,.T.);
#101=ORIENTED_EDGE('',*,*,#90,.T.);
#102=ORIENTED_EDGE('',*,*,#91,.F.);
#103=ORIENTED_EDGE('',*,*,#90,.F.);
#104=ORIENTED_EDGE('',*,*,#92,.T.);
#105=ORIENTED_EDGE('',*,*,#89,.F.);
#106=ORIENTED_EDGE('',*,*,#93,.T.);
#107=ORIENTED_EDGE('',*,*,#94,.T.);
#108=ORIENTED_EDGE('',*,*,#95,.F.);
#109=ORIENTED_EDGE('',*,*,#93,.F.);
#110=ORIENTED_EDGE('',*,*,#94,.F.);
#111=ORIENTED_EDGE('',*,*,#96,.T.);
#112=ORIENTED_EDGE('',*,*,#95,.T.);
#113=ORIENTED_EDGE('',*,*,#91,.T.);
#114=ORIENTED_EDGE('',*,*,#97,.F.);
#115=ORIENTED_EDGE('',*,*,#98,.F.);
#116=ORIENTED_EDGE('',*,*,#99,.F.);
#117=ORIENTED_EDGE('',*,*,#96,.F.);
#118=ORIENTED_EDGE('',*,*,#99,.T.);
#119=ORIENTED_EDGE('',*,*,#97,.T.);
#120=ORIENTED_EDGE('',*,*,#92,.F.);
#121=ORIENTED_EDGE('',*,*,#98,.T.);
#122=TOROIDAL_SURFACE('',#138,125.5,0.5);
#123=TOROIDAL_SURFACE('',#145,143.,0.5);
#124=TOROIDAL_SURFACE('',#152,143.,0.5);
#125=ADVANCED_FACE('',(#34,#23),#122,.T.);
#126=ADVANCED_FACE('',(#35,#24),#19,.T.);
#127=ADVANCED_FACE('',(#36,#25),#15,.F.);
#128=ADVANCED_FACE('',(#37,#26),#123,.T.);
#129=ADVANCED_FACE('',(#38,#27),#16,.T.);
#130=ADVANCED_FACE('',(#39,#28),#20,.F.);
#131=ADVANCED_FACE('',(#40,#29),#124,.T.);
#132=ADVANCED_FACE('',(#41,#30),#17,.F.);
#133=ADVANCED_FACE('',(#42,#31),#18,.F.);
#134=ADVANCED_FACE('',(#43,#32),#21,.F.);
#135=ADVANCED_FACE('',(#44,#33),#22,.T.);
#136=CLOSED_SHELL('',(#125,#126,#127,#128,#129,#130,#131,#132,#133,#134,
#135));
#137=AXIS2_PLACEMENT_3D('placement',#206,#160,#161);
#138=AXIS2_PLACEMENT_3D('',#207,#162,#163);
#139=AXIS2_PLACEMENT_3D('',#209,#164,#165);
#140=AXIS2_PLACEMENT_3D('',#211,#166,#167);
#141=AXIS2_PLACEMENT_3D('',#212,#168,#169);
#142=AXIS2_PLACEMENT_3D('',#214,#170,#171);
#143=AXIS2_PLACEMENT_3D('',#215,#172,#173);
#144=AXIS2_PLACEMENT_3D('',#217,#174,#175);
#145=AXIS2_PLACEMENT_3D('',#218,#176,#177);
#146=AXIS2_PLACEMENT_3D('',#220,#178,#179);
#147=AXIS2_PLACEMENT_3D('',#222,#180,#181);
#148=AXIS2_PLACEMENT_3D('',#223,#182,#183);
#149=AXIS2_PLACEMENT_3D('',#225,#184,#185);
#150=AXIS2_PLACEMENT_3D('',#226,#186,#187);
#151=AXIS2_PLACEMENT_3D('',#228,#188,#189);
#152=AXIS2_PLACEMENT_3D('',#229,#190,#191);
#153=AXIS2_PLACEMENT_3D('',#230,#192,#193);
#154=AXIS2_PLACEMENT_3D('',#232,#194,#195);
#155=AXIS2_PLACEMENT_3D('',#234,#196,#197);
#156=AXIS2_PLACEMENT_3D('',#235,#198,#199);
#157=AXIS2_PLACEMENT_3D('',#237,#200,#201);
#158=AXIS2_PLACEMENT_3D('',#238,#202,#203);
#159=AXIS2_PLACEMENT_3D('',#239,#204,#205);
#160=DIRECTION('axis',(0.,0.,1.));
#161=DIRECTION('refdir',(1.,0.,0.));
#162=DIRECTION('center_axis',(0.,0.,-1.));
#163=DIRECTION('ref_axis',(-1.,0.,0.));
#164=DIRECTION('center_axis',(0.,0.,-1.));
#165=DIRECTION('ref_axis',(-1.,0.,0.));
#166=DIRECTION('center_axis',(0.,0.,1.));
#167=DIRECTION('ref_axis',(-1.,0.,0.));
#168=DIRECTION('center_axis',(0.,0.,1.));
#169=DIRECTION('ref_axis',(1.,0.,0.));
#170=DIRECTION('center_axis',(0.,0.,-1.));
#171=DIRECTION('ref_axis',(-1.,0.,0.));
#172=DIRECTION('center_axis',(0.,0.,-1.));
#173=DIRECTION('ref_axis',(-1.,0.,0.));
#174=DIRECTION('center_axis',(0.,0.,-1.));
#175=DIRECTION('ref_axis',(-1.,0.,0.));
#176=DIRECTION('center_axis',(0.,0.,-1.));
#177=DIRECTION('ref_axis',(-1.,0.,0.));
#178=DIRECTION('center_axis',(0.,0.,-1.));
#179=DIRECTION('ref_axis',(-1.,0.,0.));
#180=DIRECTION('center_axis',(0.,0.,1.));
#181=DIRECTION('ref_axis',(-1.,0.,0.));
#182=DIRECTION('center_axis',(0.,0.,1.));
#183=DIRECTION('ref_axis',(-1.,0.,0.));
#184=DIRECTION('center_axis',(0.,0.,1.));
#185=DIRECTION('ref_axis',(-1.,0.,0.));
#186=DIRECTION('center_axis',(0.,0.,1.));
#187=DIRECTION('ref_axis',(1.,0.,0.));
#188=DIRECTION('center_axis',(0.,0.,1.));
#189=DIRECTION('ref_axis',(-1.,0.,0.));
#190=DIRECTION('center_axis',(0.,0.,1.));
#191=DIRECTION('ref_axis',(1.,0.,0.));
#192=DIRECTION('center_axis',(0.,0.,-1.));
#193=DIRECTION('ref_axis',(-1.,0.,0.));
#194=DIRECTION('center_axis',(0.,0.,1.));
#195=DIRECTION('ref_axis',(-1.,0.,0.));
#196=DIRECTION('center_axis',(0.,0.,-1.));
#197=DIRECTION('ref_axis',(-1.,0.,0.));
#198=DIRECTION('center_axis',(0.,0.,-1.));
#199=DIRECTION('ref_axis',(-1.,0.,0.));
#200=DIRECTION('center_axis',(0.,0.,-1.));
#201=DIRECTION('ref_axis',(-1.,0.,0.));
#202=DIRECTION('center_axis',(0.,0.,1.));
#203=DIRECTION('ref_axis',(1.,0.,0.));
#204=DIRECTION('center_axis',(0.,0.,1.));
#205=DIRECTION('ref_axis',(1.,0.,0.));
#206=CARTESIAN_POINT('',(0.,0.,0.));
#207=CARTESIAN_POINT('Origin',(0.,0.,136.5));
#208=CARTESIAN_POINT('',(125.,-1.53080849893419E-14,136.5));
#209=CARTESIAN_POINT('Origin',(0.,0.,136.5));
#210=CARTESIAN_POINT('',(125.5,1.53693173292993E-14,137.));
#211=CARTESIAN_POINT('Origin',(0.,0.,137.));
#212=CARTESIAN_POINT('Origin',(-1.46685196569671E-14,3.30101154824669E-15,
137.));
#213=CARTESIAN_POINT('',(143.,-1.75124492278071E-14,137.));
#214=CARTESIAN_POINT('Origin',(0.,0.,137.));
#215=CARTESIAN_POINT('Origin',(0.,0.,137.));
#216=CARTESIAN_POINT('',(125.,1.53080849893419E-14,4.50000000000001));
#217=CARTESIAN_POINT('Origin',(0.,0.,4.50000000000001));
#218=CARTESIAN_POINT('Origin',(0.,0.,-136.5));
#219=CARTESIAN_POINT('',(143.5,-1.75736815677645E-14,-136.5));
#220=CARTESIAN_POINT('Origin',(0.,0.,-136.5));
#221=CARTESIAN_POINT('',(143.,1.75124492278071E-14,-137.));
#222=CARTESIAN_POINT('Origin',(0.,0.,-137.));
#223=CARTESIAN_POINT('Origin',(0.,0.,0.));
#224=CARTESIAN_POINT('',(143.5,1.75736815677645E-14,136.5));
#225=CARTESIAN_POINT('Origin',(0.,0.,136.5));
#226=CARTESIAN_POINT('Origin',(-1.46685196569671E-14,3.30101154824669E-15,
-137.));
#227=CARTESIAN_POINT('',(125.,1.53080849893419E-14,-137.));
#228=CARTESIAN_POINT('Origin',(0.,0.,-137.));
#229=CARTESIAN_POINT('Origin',(0.,0.,136.5));
#230=CARTESIAN_POINT('Origin',(0.,0.,4.49999999999999));
#231=CARTESIAN_POINT('',(124.,1.51856203094272E-14,-4.49999999999999));
#232=CARTESIAN_POINT('Origin',(0.,0.,-4.49999999999999));
#233=CARTESIAN_POINT('',(124.,1.51856203094272E-14,4.49999999999999));
#234=CARTESIAN_POINT('Origin',(0.,0.,4.49999999999999));
#235=CARTESIAN_POINT('Origin',(0.,0.,-137.));
#236=CARTESIAN_POINT('',(125.,1.53080849893419E-14,-4.50000000000001));
#237=CARTESIAN_POINT('Origin',(0.,0.,-4.50000000000001));
#238=CARTESIAN_POINT('Origin',(-1.26443575212734E-14,0.,-4.49999999999999));
#239=CARTESIAN_POINT('Origin',(-1.26443575212734E-14,0.,4.49999999999999));
#240=UNCERTAINTY_MEASURE_WITH_UNIT(LENGTH_MEASURE(0.01),#244,
'DISTANCE_ACCURACY_VALUE',
'Maximum model space distance between geometric entities at asserted c
onnectivities');
#241=UNCERTAINTY_MEASURE_WITH_UNIT(LENGTH_MEASURE(1.E-6),#244,
'DISTANCE_ACCURACY_VALUE',
'Maximum model space distance between geometric entities at asserted c
onnectivities');
#242=(
GEOMETRIC_REPRESENTATION_CONTEXT(3)
GLOBAL_UNCERTAINTY_ASSIGNED_CONTEXT((#240))
GLOBAL_UNIT_ASSIGNED_CONTEXT((#244,#247,#245))
REPRESENTATION_CONTEXT('','3D')
);
#243=(
GEOMETRIC_REPRESENTATION_CONTEXT(3)
GLOBAL_UNCERTAINTY_ASSIGNED_CONTEXT((#241))
GLOBAL_UNIT_ASSIGNED_CONTEXT((#244,#247,#245))
REPRESENTATION_CONTEXT('','3D')
);
#244=(
LENGTH_UNIT()
NAMED_UNIT(*)
SI_UNIT(.MILLI.,.METRE.)
);
#245=(
NAMED_UNIT(*)
SI_UNIT($,.STERADIAN.)
SOLID_ANGLE_UNIT()
);
#246=DIMENSIONAL_EXPONENTS(0.,0.,0.,0.,0.,0.,0.);
#247=(
CONVERSION_BASED_UNIT('degree',#249)
NAMED_UNIT(#246)
PLANE_ANGLE_UNIT()
);
#248=(
NAMED_UNIT(*)
PLANE_ANGLE_UNIT()
SI_UNIT($,.RADIAN.)
);
#249=PLANE_ANGLE_MEASURE_WITH_UNIT(PLANE_ANGLE_MEASURE(0.01745329252),#248);
#250=SHAPE_DEFINITION_REPRESENTATION(#251,#252);
#251=PRODUCT_DEFINITION_SHAPE('',$,#254);
#252=SHAPE_REPRESENTATION('',(#137),#242);
#253=PRODUCT_DEFINITION_CONTEXT('part definition',#258,'design');
#254=PRODUCT_DEFINITION('SO102500','SO102500',#255,#253);
#255=PRODUCT_DEFINITION_FORMATION('',$,#260);
#256=PRODUCT_RELATED_PRODUCT_CATEGORY('SO102500','SO102500',(#260));
#257=APPLICATION_PROTOCOL_DEFINITION('international standard',
'automotive_design',2009,#258);
#258=APPLICATION_CONTEXT(
'Core Data for Automotive Mechanical Design Process');
#259=PRODUCT_CONTEXT('part definition',#258,'mechanical');
#260=PRODUCT('SO102500','SO102500',$,(#259));
#261=PRESENTATION_STYLE_ASSIGNMENT((#262));
#262=SURFACE_STYLE_USAGE(.BOTH.,#263);
#263=SURFACE_SIDE_STYLE('',(#264));
#264=SURFACE_STYLE_FILL_AREA(#265);
#265=FILL_AREA_STYLE('',(#266));
#266=FILL_AREA_STYLE_COLOUR('',#267);
#267=COLOUR_RGB('',0.92156862745098,0.92156862745098,0.92156862745098);
ENDSEC;
END-ISO-10303-21;
