ISO-10303-21;
HEADER;
FILE_DESCRIPTION( ( '' ), '1' );
FILE_NAME( '//se01002/users/anro/AGRU_12705014011_PPH_grau_Rohr__5m_140X12_7__SDR11__ISO_S-5_10.stp', '2018-02-07T07:36:07', ( '' ), ( '' ), ' ', ' ', ' ' );
FILE_SCHEMA( ( 'automotive_design' ) );
ENDSEC;
DATA;
#1 = MECHANICAL_DESIGN_GEOMETRIC_PRESENTATION_REPRESENTATION( ' ', ( #10, #11, #12, #13, #14, #15, #16, #17, #18, #19, #20, #21, #22, #23, #24, #25, #26, #27, #28, #29, #30, #31, #32, #33, #34, #35, #36 ), #6 );
#2 = PRODUCT_DEFINITION_CONTEXT( '', #37, 'design' );
#3 = APPLICATION_PROTOCOL_DEFINITION( 'INTERNATIONAL STANDARD', 'automotive_design', 1994, #37 );
#4 = PRODUCT_CATEGORY_RELATIONSHIP( 'NONE', 'NONE', #38, #39 );
#5 = SHAPE_DEFINITION_REPRESENTATION( #40, #41 );
#6 =  ( GEOMETRIC_REPRESENTATION_CONTEXT( 3 )GLOBAL_UNCERTAINTY_ASSIGNED_CONTEXT( ( #44 ) )GLOBAL_UNIT_ASSIGNED_CONTEXT( ( #46, #47, #48 ) )REPRESENTATION_CONTEXT( 'NONE', 'WORKSPACE' ) );
#10 = STYLED_ITEM( '', ( #50 ), #51 );
#11 = STYLED_ITEM( '', ( #52 ), #53 );
#12 = STYLED_ITEM( '', ( #54 ), #55 );
#13 = STYLED_ITEM( '', ( #56 ), #57 );
#14 = STYLED_ITEM( '', ( #58 ), #59 );
#15 = STYLED_ITEM( '', ( #60 ), #61 );
#16 = STYLED_ITEM( '', ( #62 ), #63 );
#17 = STYLED_ITEM( '', ( #64 ), #65 );
#18 = STYLED_ITEM( '', ( #66 ), #67 );
#19 = STYLED_ITEM( '', ( #68 ), #69 );
#20 = STYLED_ITEM( '', ( #70 ), #71 );
#21 = STYLED_ITEM( '', ( #72 ), #73 );
#22 = STYLED_ITEM( '', ( #74 ), #75 );
#23 = STYLED_ITEM( '', ( #76 ), #77 );
#24 = STYLED_ITEM( '', ( #78 ), #79 );
#25 = STYLED_ITEM( '', ( #80 ), #81 );
#26 = STYLED_ITEM( '', ( #82 ), #83 );
#27 = STYLED_ITEM( '', ( #84 ), #85 );
#28 = STYLED_ITEM( '', ( #86 ), #87 );
#29 = STYLED_ITEM( '', ( #88 ), #89 );
#30 = STYLED_ITEM( '', ( #90 ), #91 );
#31 = STYLED_ITEM( '', ( #92 ), #93 );
#32 = STYLED_ITEM( '', ( #94 ), #95 );
#33 = STYLED_ITEM( '', ( #96 ), #97 );
#34 = STYLED_ITEM( '', ( #98 ), #99 );
#35 = STYLED_ITEM( '', ( #100 ), #101 );
#36 = STYLED_ITEM( '', ( #102 ), #103 );
#37 = APPLICATION_CONTEXT( ' ' );
#38 = PRODUCT_CATEGORY( 'part', 'NONE' );
#39 = PRODUCT_RELATED_PRODUCT_CATEGORY( 'detail', ' ', ( #104 ) );
#40 = PRODUCT_DEFINITION_SHAPE( 'NONE', 'NONE', #105 );
#41 = ADVANCED_BREP_SHAPE_REPRESENTATION( '1', ( #103, #106 ), #6 );
#44 = UNCERTAINTY_MEASURE_WITH_UNIT( LENGTH_MEASURE( 1.00000000000000E-006 ), #46, '', '' );
#46 =  ( CONVERSION_BASED_UNIT( 'MILLIMETRE', #109 )LENGTH_UNIT(  )NAMED_UNIT( #112 ) );
#47 =  ( NAMED_UNIT( #114 )PLANE_ANGLE_UNIT(  )SI_UNIT( $, .RADIAN. ) );
#48 =  ( NAMED_UNIT( #114 )SOLID_ANGLE_UNIT(  )SI_UNIT( $, .STERADIAN. ) );
#50 = PRESENTATION_STYLE_ASSIGNMENT( ( #120 ) );
#51 = ADVANCED_FACE( '', ( #121 ), #122, .T. );
#52 = PRESENTATION_STYLE_ASSIGNMENT( ( #123 ) );
#53 = VERTEX_POINT( '', #124 );
#54 = PRESENTATION_STYLE_ASSIGNMENT( ( #125 ) );
#55 = VERTEX_POINT( '', #126 );
#56 = PRESENTATION_STYLE_ASSIGNMENT( ( #127 ) );
#57 = VERTEX_POINT( '', #128 );
#58 = PRESENTATION_STYLE_ASSIGNMENT( ( #129 ) );
#59 = EDGE_CURVE( '', #53, #73, #130, .T. );
#60 = PRESENTATION_STYLE_ASSIGNMENT( ( #131 ) );
#61 = EDGE_CURVE( '', #91, #75, #132, .T. );
#62 = PRESENTATION_STYLE_ASSIGNMENT( ( #133 ) );
#63 = ADVANCED_FACE( '', ( #134, #135 ), #136, .T. );
#64 = PRESENTATION_STYLE_ASSIGNMENT( ( #137 ) );
#65 = ADVANCED_FACE( '', ( #138 ), #139, .F. );
#66 = PRESENTATION_STYLE_ASSIGNMENT( ( #140 ) );
#67 = VERTEX_POINT( '', #141 );
#68 = PRESENTATION_STYLE_ASSIGNMENT( ( #142 ) );
#69 = EDGE_CURVE( '', #53, #57, #143, .T. );
#70 = PRESENTATION_STYLE_ASSIGNMENT( ( #144 ) );
#71 = ADVANCED_FACE( '', ( #145 ), #146, .F. );
#72 = PRESENTATION_STYLE_ASSIGNMENT( ( #147 ) );
#73 = VERTEX_POINT( '', #148 );
#74 = PRESENTATION_STYLE_ASSIGNMENT( ( #149 ) );
#75 = VERTEX_POINT( '', #150 );
#76 = PRESENTATION_STYLE_ASSIGNMENT( ( #151 ) );
#77 = EDGE_CURVE( '', #67, #73, #152, .T. );
#78 = PRESENTATION_STYLE_ASSIGNMENT( ( #153 ) );
#79 = EDGE_CURVE( '', #55, #99, #154, .T. );
#80 = PRESENTATION_STYLE_ASSIGNMENT( ( #155 ) );
#81 = EDGE_CURVE( '', #75, #91, #156, .T. );
#82 = PRESENTATION_STYLE_ASSIGNMENT( ( #157 ) );
#83 = EDGE_CURVE( '', #75, #99, #158, .T. );
#84 = PRESENTATION_STYLE_ASSIGNMENT( ( #159 ) );
#85 = EDGE_CURVE( '', #99, #55, #160, .T. );
#86 = PRESENTATION_STYLE_ASSIGNMENT( ( #161 ) );
#87 = EDGE_CURVE( '', #73, #67, #162, .T. );
#88 = PRESENTATION_STYLE_ASSIGNMENT( ( #163 ) );
#89 = EDGE_CURVE( '', #57, #53, #164, .T. );
#90 = PRESENTATION_STYLE_ASSIGNMENT( ( #165 ) );
#91 = VERTEX_POINT( '', #166 );
#92 = PRESENTATION_STYLE_ASSIGNMENT( ( #167 ) );
#93 = ADVANCED_FACE( '', ( #168 ), #169, .T. );
#94 = PRESENTATION_STYLE_ASSIGNMENT( ( #170 ) );
#95 = ADVANCED_FACE( '', ( #171, #172 ), #173, .F. );
#96 = PRESENTATION_STYLE_ASSIGNMENT( ( #174 ) );
#97 = EDGE_CURVE( '', #67, #57, #175, .T. );
#98 = PRESENTATION_STYLE_ASSIGNMENT( ( #176 ) );
#99 = VERTEX_POINT( '', #177 );
#100 = PRESENTATION_STYLE_ASSIGNMENT( ( #178 ) );
#101 = EDGE_CURVE( '', #55, #91, #179, .T. );
#102 = PRESENTATION_STYLE_ASSIGNMENT( ( #180 ) );
#103 = MANIFOLD_SOLID_BREP( '1', #181 );
#104 = PRODUCT( '1', '1', 'PART-1-DESC', ( #182 ) );
#105 = PRODUCT_DEFINITION( 'NONE', 'NONE', #183, #2 );
#106 = AXIS2_PLACEMENT_3D( '', #184, #185, #186 );
#109 = LENGTH_MEASURE_WITH_UNIT( LENGTH_MEASURE( 1.00000000000000 ), #187 );
#112 = DIMENSIONAL_EXPONENTS( 1.00000000000000, 0.000000000000000, 0.000000000000000, 0.000000000000000, 0.000000000000000, 0.000000000000000, 0.000000000000000 );
#114 = DIMENSIONAL_EXPONENTS( 0.000000000000000, 0.000000000000000, 0.000000000000000, 0.000000000000000, 0.000000000000000, 0.000000000000000, 0.000000000000000 );
#120 = SURFACE_STYLE_USAGE( .BOTH., #188 );
#121 = FACE_OUTER_BOUND( '', #189, .T. );
#122 = CYLINDRICAL_SURFACE( '', #190, 70.0000000000000 );
#123 = POINT_STYLE( ' ', #191, POSITIVE_LENGTH_MEASURE( 1.00000000000000E-006 ), #192 );
#124 = CARTESIAN_POINT( '', ( 5000.00000000000, 7.01699440740222E-015, 57.3000000000000 ) );
#125 = POINT_STYLE( ' ', #193, POSITIVE_LENGTH_MEASURE( 1.00000000000000E-006 ), #194 );
#126 = CARTESIAN_POINT( '', ( 0.000000000000000, 0.000000000000000, -70.0000000000000 ) );
#127 = POINT_STYLE( ' ', #195, POSITIVE_LENGTH_MEASURE( 1.00000000000000E-006 ), #196 );
#128 = CARTESIAN_POINT( '', ( 5000.00000000000, 0.000000000000000, -57.3000000000000 ) );
#129 = CURVE_STYLE( '', #197, POSITIVE_LENGTH_MEASURE( 1.00000000000000E-006 ), #198 );
#130 = LINE( '', #199, #200 );
#131 = CURVE_STYLE( '', #201, POSITIVE_LENGTH_MEASURE( 1.00000000000000E-006 ), #202 );
#132 = CIRCLE( '', #203, 70.0000000000000 );
#133 = SURFACE_STYLE_USAGE( .BOTH., #204 );
#134 = FACE_OUTER_BOUND( '', #205, .T. );
#135 = FACE_BOUND( '', #206, .T. );
#136 = PLANE( '', #207 );
#137 = SURFACE_STYLE_USAGE( .BOTH., #208 );
#138 = FACE_OUTER_BOUND( '', #209, .T. );
#139 = CYLINDRICAL_SURFACE( '', #210, 57.3000000000000 );
#140 = POINT_STYLE( ' ', #211, POSITIVE_LENGTH_MEASURE( 1.00000000000000E-006 ), #212 );
#141 = CARTESIAN_POINT( '', ( 0.000000000000000, 0.000000000000000, -57.3000000000000 ) );
#142 = CURVE_STYLE( '', #213, POSITIVE_LENGTH_MEASURE( 1.00000000000000E-006 ), #214 );
#143 = CIRCLE( '', #215, 57.3000000000000 );
#144 = SURFACE_STYLE_USAGE( .BOTH., #216 );
#145 = FACE_OUTER_BOUND( '', #217, .T. );
#146 = CYLINDRICAL_SURFACE( '', #218, 57.3000000000000 );
#147 = POINT_STYLE( ' ', #219, POSITIVE_LENGTH_MEASURE( 1.00000000000000E-006 ), #220 );
#148 = CARTESIAN_POINT( '', ( 0.000000000000000, 7.01699440740222E-015, 57.3000000000000 ) );
#149 = POINT_STYLE( ' ', #221, POSITIVE_LENGTH_MEASURE( 1.00000000000000E-006 ), #222 );
#150 = CARTESIAN_POINT( '', ( 5000.00000000000, 8.57224447675664E-015, 70.0000000000000 ) );
#151 = CURVE_STYLE( '', #223, POSITIVE_LENGTH_MEASURE( 1.00000000000000E-006 ), #224 );
#152 = CIRCLE( '', #225, 57.3000000000000 );
#153 = CURVE_STYLE( '', #226, POSITIVE_LENGTH_MEASURE( 1.00000000000000E-006 ), #227 );
#154 = CIRCLE( '', #228, 70.0000000000000 );
#155 = CURVE_STYLE( '', #229, POSITIVE_LENGTH_MEASURE( 1.00000000000000E-006 ), #230 );
#156 = CIRCLE( '', #231, 70.0000000000000 );
#157 = CURVE_STYLE( '', #232, POSITIVE_LENGTH_MEASURE( 1.00000000000000E-006 ), #233 );
#158 = LINE( '', #234, #235 );
#159 = CURVE_STYLE( '', #236, POSITIVE_LENGTH_MEASURE( 1.00000000000000E-006 ), #237 );
#160 = CIRCLE( '', #238, 70.0000000000000 );
#161 = CURVE_STYLE( '', #239, POSITIVE_LENGTH_MEASURE( 1.00000000000000E-006 ), #240 );
#162 = CIRCLE( '', #241, 57.3000000000000 );
#163 = CURVE_STYLE( '', #242, POSITIVE_LENGTH_MEASURE( 1.00000000000000E-006 ), #243 );
#164 = CIRCLE( '', #244, 57.3000000000000 );
#165 = POINT_STYLE( ' ', #245, POSITIVE_LENGTH_MEASURE( 1.00000000000000E-006 ), #246 );
#166 = CARTESIAN_POINT( '', ( 5000.00000000000, 0.000000000000000, -70.0000000000000 ) );
#167 = SURFACE_STYLE_USAGE( .BOTH., #247 );
#168 = FACE_OUTER_BOUND( '', #248, .T. );
#169 = CYLINDRICAL_SURFACE( '', #249, 70.0000000000000 );
#170 = SURFACE_STYLE_USAGE( .BOTH., #250 );
#171 = FACE_OUTER_BOUND( '', #251, .T. );
#172 = FACE_BOUND( '', #252, .T. );
#173 = PLANE( '', #253 );
#174 = CURVE_STYLE( '', #254, POSITIVE_LENGTH_MEASURE( 1.00000000000000E-006 ), #255 );
#175 = LINE( '', #256, #257 );
#176 = POINT_STYLE( ' ', #258, POSITIVE_LENGTH_MEASURE( 1.00000000000000E-006 ), #259 );
#177 = CARTESIAN_POINT( '', ( 0.000000000000000, 8.57224447675664E-015, 70.0000000000000 ) );
#178 = CURVE_STYLE( '', #260, POSITIVE_LENGTH_MEASURE( 1.00000000000000E-006 ), #261 );
#179 = LINE( '', #262, #263 );
#180 = SURFACE_STYLE_USAGE( .BOTH., #264 );
#181 = CLOSED_SHELL( '', ( #93, #71, #65, #51, #63, #95 ) );
#182 = PRODUCT_CONTEXT( '', #37, 'mechanical' );
#183 = PRODUCT_DEFINITION_FORMATION_WITH_SPECIFIED_SOURCE( ' ', 'NONE', #104, .NOT_KNOWN. );
#184 = CARTESIAN_POINT( '', ( 0.000000000000000, 0.000000000000000, 0.000000000000000 ) );
#185 = DIRECTION( '', ( 0.000000000000000, 0.000000000000000, 1.00000000000000 ) );
#186 = DIRECTION( '', ( 1.00000000000000, 0.000000000000000, 0.000000000000000 ) );
#187 =  ( NAMED_UNIT( #112 )LENGTH_UNIT(  )SI_UNIT( .MILLI., .METRE. ) );
#188 = SURFACE_SIDE_STYLE( '', ( #266 ) );
#189 = EDGE_LOOP( '', ( #267, #268, #269, #270 ) );
#190 = AXIS2_PLACEMENT_3D( '', #271, #272, #273 );
#191 = PRE_DEFINED_MARKER( '' );
#192 = COLOUR_RGB( '', 0.689999997615810, 0.689999997615810, 0.689999997615810 );
#193 = PRE_DEFINED_MARKER( '' );
#194 = COLOUR_RGB( '', 0.689999997615810, 0.689999997615810, 0.689999997615810 );
#195 = PRE_DEFINED_MARKER( '' );
#196 = COLOUR_RGB( '', 0.689999997615810, 0.689999997615810, 0.689999997615810 );
#197 = DRAUGHTING_PRE_DEFINED_CURVE_FONT( 'continuous' );
#198 = COLOUR_RGB( '', 0.689999997615810, 0.689999997615810, 0.689999997615810 );
#199 = CARTESIAN_POINT( '', ( 0.000000000000000, 7.01699440740222E-015, 57.3000000000000 ) );
#200 = VECTOR( '', #274, 1.00000000000000 );
#201 = DRAUGHTING_PRE_DEFINED_CURVE_FONT( 'continuous' );
#202 = COLOUR_RGB( '', 0.689999997615810, 0.689999997615810, 0.689999997615810 );
#203 = AXIS2_PLACEMENT_3D( '', #275, #276, #277 );
#204 = SURFACE_SIDE_STYLE( '', ( #278 ) );
#205 = EDGE_LOOP( '', ( #279, #280 ) );
#206 = EDGE_LOOP( '', ( #281, #282 ) );
#207 = AXIS2_PLACEMENT_3D( '', #283, #284, #285 );
#208 = SURFACE_SIDE_STYLE( '', ( #286 ) );
#209 = EDGE_LOOP( '', ( #287, #288, #289, #290 ) );
#210 = AXIS2_PLACEMENT_3D( '', #291, #292, #293 );
#211 = PRE_DEFINED_MARKER( '' );
#212 = COLOUR_RGB( '', 0.689999997615810, 0.689999997615810, 0.689999997615810 );
#213 = DRAUGHTING_PRE_DEFINED_CURVE_FONT( 'continuous' );
#214 = COLOUR_RGB( '', 0.689999997615810, 0.689999997615810, 0.689999997615810 );
#215 = AXIS2_PLACEMENT_3D( '', #294, #295, #296 );
#216 = SURFACE_SIDE_STYLE( '', ( #297 ) );
#217 = EDGE_LOOP( '', ( #298, #299, #300, #301 ) );
#218 = AXIS2_PLACEMENT_3D( '', #302, #303, #304 );
#219 = PRE_DEFINED_MARKER( '' );
#220 = COLOUR_RGB( '', 0.689999997615810, 0.689999997615810, 0.689999997615810 );
#221 = PRE_DEFINED_MARKER( '' );
#222 = COLOUR_RGB( '', 0.689999997615810, 0.689999997615810, 0.689999997615810 );
#223 = DRAUGHTING_PRE_DEFINED_CURVE_FONT( 'continuous' );
#224 = COLOUR_RGB( '', 0.689999997615810, 0.689999997615810, 0.689999997615810 );
#225 = AXIS2_PLACEMENT_3D( '', #305, #306, #307 );
#226 = DRAUGHTING_PRE_DEFINED_CURVE_FONT( 'continuous' );
#227 = COLOUR_RGB( '', 0.689999997615810, 0.689999997615810, 0.689999997615810 );
#228 = AXIS2_PLACEMENT_3D( '', #308, #309, #310 );
#229 = DRAUGHTING_PRE_DEFINED_CURVE_FONT( 'continuous' );
#230 = COLOUR_RGB( '', 0.689999997615810, 0.689999997615810, 0.689999997615810 );
#231 = AXIS2_PLACEMENT_3D( '', #311, #312, #313 );
#232 = DRAUGHTING_PRE_DEFINED_CURVE_FONT( 'continuous' );
#233 = COLOUR_RGB( '', 0.689999997615810, 0.689999997615810, 0.689999997615810 );
#234 = CARTESIAN_POINT( '', ( 0.000000000000000, 8.57224447675664E-015, 70.0000000000000 ) );
#235 = VECTOR( '', #314, 1.00000000000000 );
#236 = DRAUGHTING_PRE_DEFINED_CURVE_FONT( 'continuous' );
#237 = COLOUR_RGB( '', 0.689999997615810, 0.689999997615810, 0.689999997615810 );
#238 = AXIS2_PLACEMENT_3D( '', #315, #316, #317 );
#239 = DRAUGHTING_PRE_DEFINED_CURVE_FONT( 'continuous' );
#240 = COLOUR_RGB( '', 0.689999997615810, 0.689999997615810, 0.689999997615810 );
#241 = AXIS2_PLACEMENT_3D( '', #318, #319, #320 );
#242 = DRAUGHTING_PRE_DEFINED_CURVE_FONT( 'continuous' );
#243 = COLOUR_RGB( '', 0.689999997615810, 0.689999997615810, 0.689999997615810 );
#244 = AXIS2_PLACEMENT_3D( '', #321, #322, #323 );
#245 = PRE_DEFINED_MARKER( '' );
#246 = COLOUR_RGB( '', 0.689999997615810, 0.689999997615810, 0.689999997615810 );
#247 = SURFACE_SIDE_STYLE( '', ( #324 ) );
#248 = EDGE_LOOP( '', ( #325, #326, #327, #328 ) );
#249 = AXIS2_PLACEMENT_3D( '', #329, #330, #331 );
#250 = SURFACE_SIDE_STYLE( '', ( #332 ) );
#251 = EDGE_LOOP( '', ( #333, #334 ) );
#252 = EDGE_LOOP( '', ( #335, #336 ) );
#253 = AXIS2_PLACEMENT_3D( '', #337, #338, #339 );
#254 = DRAUGHTING_PRE_DEFINED_CURVE_FONT( 'continuous' );
#255 = COLOUR_RGB( '', 0.689999997615810, 0.689999997615810, 0.689999997615810 );
#256 = CARTESIAN_POINT( '', ( 0.000000000000000, -7.01699440740222E-015, -57.3000000000000 ) );
#257 = VECTOR( '', #340, 1.00000000000000 );
#258 = PRE_DEFINED_MARKER( '' );
#259 = COLOUR_RGB( '', 0.689999997615810, 0.689999997615810, 0.689999997615810 );
#260 = DRAUGHTING_PRE_DEFINED_CURVE_FONT( 'continuous' );
#261 = COLOUR_RGB( '', 0.689999997615810, 0.689999997615810, 0.689999997615810 );
#262 = CARTESIAN_POINT( '', ( 0.000000000000000, -8.57224447675664E-015, -70.0000000000000 ) );
#263 = VECTOR( '', #341, 1.00000000000000 );
#264 = SURFACE_SIDE_STYLE( '', ( #342 ) );
#266 = SURFACE_STYLE_FILL_AREA( #343 );
#267 = ORIENTED_EDGE( '', *, *, #101, .T. );
#268 = ORIENTED_EDGE( '', *, *, #61, .T. );
#269 = ORIENTED_EDGE( '', *, *, #83, .T. );
#270 = ORIENTED_EDGE( '', *, *, #85, .T. );
#271 = CARTESIAN_POINT( '', ( 0.000000000000000, 0.000000000000000, 0.000000000000000 ) );
#272 = DIRECTION( '', ( -1.00000000000000, -0.000000000000000, -0.000000000000000 ) );
#273 = DIRECTION( '', ( 0.000000000000000, 0.000000000000000, -1.00000000000000 ) );
#274 = DIRECTION( '', ( -1.00000000000000, 0.000000000000000, 0.000000000000000 ) );
#275 = CARTESIAN_POINT( '', ( 5000.00000000000, 0.000000000000000, 0.000000000000000 ) );
#276 = DIRECTION( '', ( -1.00000000000000, 0.000000000000000, 0.000000000000000 ) );
#277 = DIRECTION( '', ( 0.000000000000000, 0.000000000000000, -1.00000000000000 ) );
#278 = SURFACE_STYLE_FILL_AREA( #344 );
#279 = ORIENTED_EDGE( '', *, *, #61, .F. );
#280 = ORIENTED_EDGE( '', *, *, #81, .F. );
#281 = ORIENTED_EDGE( '', *, *, #89, .F. );
#282 = ORIENTED_EDGE( '', *, *, #69, .F. );
#283 = CARTESIAN_POINT( '', ( 5000.00000000000, 0.000000000000000, 0.000000000000000 ) );
#284 = DIRECTION( '', ( 1.00000000000000, 0.000000000000000, 0.000000000000000 ) );
#285 = DIRECTION( '', ( 0.000000000000000, 0.000000000000000, -1.00000000000000 ) );
#286 = SURFACE_STYLE_FILL_AREA( #345 );
#287 = ORIENTED_EDGE( '', *, *, #97, .T. );
#288 = ORIENTED_EDGE( '', *, *, #89, .T. );
#289 = ORIENTED_EDGE( '', *, *, #59, .T. );
#290 = ORIENTED_EDGE( '', *, *, #77, .F. );
#291 = CARTESIAN_POINT( '', ( 0.000000000000000, 0.000000000000000, 0.000000000000000 ) );
#292 = DIRECTION( '', ( -1.00000000000000, -0.000000000000000, -0.000000000000000 ) );
#293 = DIRECTION( '', ( 0.000000000000000, 0.000000000000000, -1.00000000000000 ) );
#294 = CARTESIAN_POINT( '', ( 5000.00000000000, 0.000000000000000, 0.000000000000000 ) );
#295 = DIRECTION( '', ( 1.00000000000000, 0.000000000000000, 0.000000000000000 ) );
#296 = DIRECTION( '', ( 0.000000000000000, 0.000000000000000, -1.00000000000000 ) );
#297 = SURFACE_STYLE_FILL_AREA( #346 );
#298 = ORIENTED_EDGE( '', *, *, #97, .F. );
#299 = ORIENTED_EDGE( '', *, *, #87, .F. );
#300 = ORIENTED_EDGE( '', *, *, #59, .F. );
#301 = ORIENTED_EDGE( '', *, *, #69, .T. );
#302 = CARTESIAN_POINT( '', ( 0.000000000000000, 0.000000000000000, 0.000000000000000 ) );
#303 = DIRECTION( '', ( -1.00000000000000, -0.000000000000000, -0.000000000000000 ) );
#304 = DIRECTION( '', ( 0.000000000000000, 0.000000000000000, -1.00000000000000 ) );
#305 = CARTESIAN_POINT( '', ( 0.000000000000000, 0.000000000000000, 0.000000000000000 ) );
#306 = DIRECTION( '', ( 1.00000000000000, -0.000000000000000, 0.000000000000000 ) );
#307 = DIRECTION( '', ( 0.000000000000000, 0.000000000000000, -1.00000000000000 ) );
#308 = CARTESIAN_POINT( '', ( 0.000000000000000, 0.000000000000000, 0.000000000000000 ) );
#309 = DIRECTION( '', ( 1.00000000000000, -0.000000000000000, 0.000000000000000 ) );
#310 = DIRECTION( '', ( 0.000000000000000, 0.000000000000000, -1.00000000000000 ) );
#311 = CARTESIAN_POINT( '', ( 5000.00000000000, 0.000000000000000, 0.000000000000000 ) );
#312 = DIRECTION( '', ( -1.00000000000000, 0.000000000000000, 0.000000000000000 ) );
#313 = DIRECTION( '', ( 0.000000000000000, 0.000000000000000, -1.00000000000000 ) );
#314 = DIRECTION( '', ( -1.00000000000000, -0.000000000000000, -0.000000000000000 ) );
#315 = CARTESIAN_POINT( '', ( 0.000000000000000, 0.000000000000000, 0.000000000000000 ) );
#316 = DIRECTION( '', ( 1.00000000000000, -0.000000000000000, 0.000000000000000 ) );
#317 = DIRECTION( '', ( 0.000000000000000, 0.000000000000000, -1.00000000000000 ) );
#318 = CARTESIAN_POINT( '', ( 0.000000000000000, 0.000000000000000, 0.000000000000000 ) );
#319 = DIRECTION( '', ( 1.00000000000000, -0.000000000000000, 0.000000000000000 ) );
#320 = DIRECTION( '', ( 0.000000000000000, 0.000000000000000, -1.00000000000000 ) );
#321 = CARTESIAN_POINT( '', ( 5000.00000000000, 0.000000000000000, 0.000000000000000 ) );
#322 = DIRECTION( '', ( 1.00000000000000, 0.000000000000000, 0.000000000000000 ) );
#323 = DIRECTION( '', ( 0.000000000000000, 0.000000000000000, -1.00000000000000 ) );
#324 = SURFACE_STYLE_FILL_AREA( #347 );
#325 = ORIENTED_EDGE( '', *, *, #101, .F. );
#326 = ORIENTED_EDGE( '', *, *, #79, .T. );
#327 = ORIENTED_EDGE( '', *, *, #83, .F. );
#328 = ORIENTED_EDGE( '', *, *, #81, .T. );
#329 = CARTESIAN_POINT( '', ( 0.000000000000000, 0.000000000000000, 0.000000000000000 ) );
#330 = DIRECTION( '', ( -1.00000000000000, -0.000000000000000, -0.000000000000000 ) );
#331 = DIRECTION( '', ( 0.000000000000000, 0.000000000000000, -1.00000000000000 ) );
#332 = SURFACE_STYLE_FILL_AREA( #348 );
#333 = ORIENTED_EDGE( '', *, *, #79, .F. );
#334 = ORIENTED_EDGE( '', *, *, #85, .F. );
#335 = ORIENTED_EDGE( '', *, *, #77, .T. );
#336 = ORIENTED_EDGE( '', *, *, #87, .T. );
#337 = CARTESIAN_POINT( '', ( 0.000000000000000, 0.000000000000000, 0.000000000000000 ) );
#338 = DIRECTION( '', ( 1.00000000000000, 0.000000000000000, 0.000000000000000 ) );
#339 = DIRECTION( '', ( 0.000000000000000, 0.000000000000000, -1.00000000000000 ) );
#340 = DIRECTION( '', ( 1.00000000000000, 0.000000000000000, 0.000000000000000 ) );
#341 = DIRECTION( '', ( 1.00000000000000, 0.000000000000000, 0.000000000000000 ) );
#342 = SURFACE_STYLE_FILL_AREA( #349 );
#343 = FILL_AREA_STYLE( '', ( #350 ) );
#344 = FILL_AREA_STYLE( '', ( #351 ) );
#345 = FILL_AREA_STYLE( '', ( #352 ) );
#346 = FILL_AREA_STYLE( '', ( #353 ) );
#347 = FILL_AREA_STYLE( '', ( #354 ) );
#348 = FILL_AREA_STYLE( '', ( #355 ) );
#349 = FILL_AREA_STYLE( '', ( #356 ) );
#350 = FILL_AREA_STYLE_COLOUR( '', #357 );
#351 = FILL_AREA_STYLE_COLOUR( '', #358 );
#352 = FILL_AREA_STYLE_COLOUR( '', #359 );
#353 = FILL_AREA_STYLE_COLOUR( '', #360 );
#354 = FILL_AREA_STYLE_COLOUR( '', #361 );
#355 = FILL_AREA_STYLE_COLOUR( '', #362 );
#356 = FILL_AREA_STYLE_COLOUR( '', #363 );
#357 = COLOUR_RGB( '', 0.689999997615810, 0.689999997615810, 0.689999997615810 );
#358 = COLOUR_RGB( '', 0.689999997615810, 0.689999997615810, 0.689999997615810 );
#359 = COLOUR_RGB( '', 0.689999997615810, 0.689999997615810, 0.689999997615810 );
#360 = COLOUR_RGB( '', 0.689999997615810, 0.689999997615810, 0.689999997615810 );
#361 = COLOUR_RGB( '', 0.689999997615810, 0.689999997615810, 0.689999997615810 );
#362 = COLOUR_RGB( '', 0.689999997615810, 0.689999997615810, 0.689999997615810 );
#363 = COLOUR_RGB( '', 0.689999997615810, 0.689999997615810, 0.689999997615810 );
ENDSEC;
END-ISO-10303-21;
