ISO-10303-21;
HEADER;
/* Generated by software containing ST-Developer
 * from STEP Tools, Inc. (www.steptools.com) 
 */

FILE_DESCRIPTION(
/* description */ (''),
/* implementation_level */ '2;1');

FILE_NAME(
/* name */ 
'Q:\\Ric010\\FF7\\FIPlastiCAD\\FIP\\Lavoro\\PVC Fittings\\PVC Fittings
 STEP\\NFV\\NFV212.ipt.stp',
/* time_stamp */ '2013-10-01T14:48:14+02:00',
/* author */ ('bfaro'),
/* organization */ (''),
/* preprocessor_version */ 'ST-DEVELOPER v15.2',
/* originating_system */ 'Autodesk Inventor 2014',
/* authorisation */ '');

FILE_SCHEMA (('AUTOMOTIVE_DESIGN { 1 0 10303 214 3 1 1 }'));
ENDSEC;

DATA;
#10=SHAPE_REPRESENTATION_RELATIONSHIP('SRR','None',#465,#11);
#11=ADVANCED_BREP_SHAPE_REPRESENTATION($,(#278),#456);
#12=LINE($,#408,#36);
#13=LINE($,#410,#37);
#14=LINE($,#412,#38);
#15=LINE($,#413,#39);
#16=LINE($,#416,#40);
#17=LINE($,#418,#41);
#18=LINE($,#419,#42);
#19=LINE($,#422,#43);
#20=LINE($,#424,#44);
#21=LINE($,#425,#45);
#22=LINE($,#428,#46);
#23=LINE($,#430,#47);
#24=LINE($,#431,#48);
#25=LINE($,#434,#49);
#26=LINE($,#436,#50);
#27=LINE($,#437,#51);
#28=LINE($,#440,#52);
#29=LINE($,#442,#53);
#30=LINE($,#443,#54);
#31=LINE($,#446,#55);
#32=LINE($,#448,#56);
#33=LINE($,#449,#57);
#34=LINE($,#451,#58);
#35=LINE($,#452,#59);
#36=VECTOR($,#339,33.1370849898477);
#37=VECTOR($,#340,17.6);
#38=VECTOR($,#341,33.1370849898477);
#39=VECTOR($,#342,17.6);
#40=VECTOR($,#345,33.1370849898476);
#41=VECTOR($,#346,17.6);
#42=VECTOR($,#347,33.1370849898476);
#43=VECTOR($,#350,33.1370849898476);
#44=VECTOR($,#351,17.6);
#45=VECTOR($,#352,33.1370849898476);
#46=VECTOR($,#355,33.1370849898476);
#47=VECTOR($,#356,17.6);
#48=VECTOR($,#357,33.1370849898476);
#49=VECTOR($,#360,33.1370849898476);
#50=VECTOR($,#361,17.6);
#51=VECTOR($,#362,33.1370849898476);
#52=VECTOR($,#365,33.1370849898476);
#53=VECTOR($,#366,17.6);
#54=VECTOR($,#367,33.1370849898476);
#55=VECTOR($,#370,33.1370849898476);
#56=VECTOR($,#371,17.6);
#57=VECTOR($,#372,33.1370849898476);
#58=VECTOR($,#375,33.1370849898476);
#59=VECTOR($,#376,33.1370849898476);
#60=PLANE($,#293);
#61=PLANE($,#294);
#62=PLANE($,#295);
#63=PLANE($,#296);
#64=PLANE($,#297);
#65=PLANE($,#298);
#66=PLANE($,#299);
#67=PLANE($,#300);
#68=PLANE($,#301);
#69=PLANE($,#302);
#70=PLANE($,#303);
#71=PLANE($,#304);
#72=STYLED_ITEM($,(#474),#263);
#73=STYLED_ITEM($,(#474),#264);
#74=STYLED_ITEM($,(#473),#278);
#75=CYLINDRICAL_SURFACE($,#286,31.1499999999999);
#76=CYLINDRICAL_SURFACE($,#287,37.6499999999999);
#77=CYLINDRICAL_SURFACE($,#290,37.6499999999999);
#78=FACE_BOUND($,#105,.T.);
#79=FACE_BOUND($,#107,.T.);
#80=FACE_BOUND($,#109,.T.);
#81=FACE_BOUND($,#111,.T.);
#82=FACE_BOUND($,#113,.T.);
#83=FACE_BOUND($,#115,.T.);
#84=FACE_BOUND($,#117,.T.);
#85=FACE_BOUND($,#127,.T.);
#86=FACE_BOUND($,#129,.T.);
#87=FACE_OUTER_BOUND($,#104,.T.);
#88=FACE_OUTER_BOUND($,#106,.T.);
#89=FACE_OUTER_BOUND($,#108,.T.);
#90=FACE_OUTER_BOUND($,#110,.T.);
#91=FACE_OUTER_BOUND($,#112,.T.);
#92=FACE_OUTER_BOUND($,#114,.T.);
#93=FACE_OUTER_BOUND($,#116,.T.);
#94=FACE_OUTER_BOUND($,#118,.T.);
#95=FACE_OUTER_BOUND($,#119,.T.);
#96=FACE_OUTER_BOUND($,#120,.T.);
#97=FACE_OUTER_BOUND($,#121,.T.);
#98=FACE_OUTER_BOUND($,#122,.T.);
#99=FACE_OUTER_BOUND($,#123,.T.);
#100=FACE_OUTER_BOUND($,#124,.T.);
#101=FACE_OUTER_BOUND($,#125,.T.);
#102=FACE_OUTER_BOUND($,#126,.T.);
#103=FACE_OUTER_BOUND($,#128,.T.);
#104=EDGE_LOOP($,(#194));
#105=EDGE_LOOP($,(#195));
#106=EDGE_LOOP($,(#196));
#107=EDGE_LOOP($,(#197));
#108=EDGE_LOOP($,(#198));
#109=EDGE_LOOP($,(#199));
#110=EDGE_LOOP($,(#200));
#111=EDGE_LOOP($,(#201));
#112=EDGE_LOOP($,(#202));
#113=EDGE_LOOP($,(#203));
#114=EDGE_LOOP($,(#204));
#115=EDGE_LOOP($,(#205));
#116=EDGE_LOOP($,(#206));
#117=EDGE_LOOP($,(#207));
#118=EDGE_LOOP($,(#208,#209,#210,#211));
#119=EDGE_LOOP($,(#212,#213,#214,#215));
#120=EDGE_LOOP($,(#216,#217,#218,#219));
#121=EDGE_LOOP($,(#220,#221,#222,#223));
#122=EDGE_LOOP($,(#224,#225,#226,#227));
#123=EDGE_LOOP($,(#228,#229,#230,#231));
#124=EDGE_LOOP($,(#232,#233,#234,#235));
#125=EDGE_LOOP($,(#236,#237,#238,#239));
#126=EDGE_LOOP($,(#240,#241,#242,#243,#244,#245,#246,#247));
#127=EDGE_LOOP($,(#248));
#128=EDGE_LOOP($,(#249,#250,#251,#252,#253,#254,#255,#256));
#129=EDGE_LOOP($,(#257));
#130=CIRCLE($,#281,32.0316349035423);
#131=CIRCLE($,#282,31.1499999999999);
#132=CIRCLE($,#284,31.1499999999998);
#133=CIRCLE($,#285,31.6789809421253);
#134=CIRCLE($,#288,37.6499999999999);
#135=CIRCLE($,#289,37.6499999999999);
#136=CIRCLE($,#291,37.6499999999999);
#137=CIRCLE($,#292,37.65);
#138=VERTEX_POINT($,#383);
#139=VERTEX_POINT($,#385);
#140=VERTEX_POINT($,#388);
#141=VERTEX_POINT($,#390);
#142=VERTEX_POINT($,#394);
#143=VERTEX_POINT($,#396);
#144=VERTEX_POINT($,#399);
#145=VERTEX_POINT($,#401);
#146=VERTEX_POINT($,#406);
#147=VERTEX_POINT($,#407);
#148=VERTEX_POINT($,#409);
#149=VERTEX_POINT($,#411);
#150=VERTEX_POINT($,#415);
#151=VERTEX_POINT($,#417);
#152=VERTEX_POINT($,#421);
#153=VERTEX_POINT($,#423);
#154=VERTEX_POINT($,#427);
#155=VERTEX_POINT($,#429);
#156=VERTEX_POINT($,#433);
#157=VERTEX_POINT($,#435);
#158=VERTEX_POINT($,#439);
#159=VERTEX_POINT($,#441);
#160=VERTEX_POINT($,#445);
#161=VERTEX_POINT($,#447);
#162=EDGE_CURVE($,#138,#138,#130,.T.);
#163=EDGE_CURVE($,#139,#139,#131,.T.);
#164=EDGE_CURVE($,#140,#140,#132,.T.);
#165=EDGE_CURVE($,#141,#141,#133,.T.);
#166=EDGE_CURVE($,#142,#142,#134,.T.);
#167=EDGE_CURVE($,#143,#143,#135,.T.);
#168=EDGE_CURVE($,#144,#144,#136,.T.);
#169=EDGE_CURVE($,#145,#145,#137,.T.);
#170=EDGE_CURVE($,#146,#147,#12,.T.);
#171=EDGE_CURVE($,#148,#147,#13,.T.);
#172=EDGE_CURVE($,#148,#149,#14,.T.);
#173=EDGE_CURVE($,#149,#146,#15,.T.);
#174=EDGE_CURVE($,#147,#150,#16,.T.);
#175=EDGE_CURVE($,#151,#150,#17,.T.);
#176=EDGE_CURVE($,#151,#148,#18,.T.);
#177=EDGE_CURVE($,#150,#152,#19,.T.);
#178=EDGE_CURVE($,#153,#152,#20,.T.);
#179=EDGE_CURVE($,#153,#151,#21,.T.);
#180=EDGE_CURVE($,#152,#154,#22,.T.);
#181=EDGE_CURVE($,#155,#154,#23,.T.);
#182=EDGE_CURVE($,#155,#153,#24,.T.);
#183=EDGE_CURVE($,#154,#156,#25,.T.);
#184=EDGE_CURVE($,#157,#156,#26,.T.);
#185=EDGE_CURVE($,#157,#155,#27,.T.);
#186=EDGE_CURVE($,#156,#158,#28,.T.);
#187=EDGE_CURVE($,#159,#158,#29,.T.);
#188=EDGE_CURVE($,#159,#157,#30,.T.);
#189=EDGE_CURVE($,#158,#160,#31,.T.);
#190=EDGE_CURVE($,#161,#160,#32,.T.);
#191=EDGE_CURVE($,#161,#159,#33,.T.);
#192=EDGE_CURVE($,#160,#146,#34,.T.);
#193=EDGE_CURVE($,#149,#161,#35,.T.);
#194=ORIENTED_EDGE($,*,*,#162,.F.);
#195=ORIENTED_EDGE($,*,*,#163,.T.);
#196=ORIENTED_EDGE($,*,*,#164,.F.);
#197=ORIENTED_EDGE($,*,*,#165,.T.);
#198=ORIENTED_EDGE($,*,*,#163,.F.);
#199=ORIENTED_EDGE($,*,*,#164,.T.);
#200=ORIENTED_EDGE($,*,*,#166,.T.);
#201=ORIENTED_EDGE($,*,*,#167,.F.);
#202=ORIENTED_EDGE($,*,*,#168,.F.);
#203=ORIENTED_EDGE($,*,*,#169,.F.);
#204=ORIENTED_EDGE($,*,*,#169,.T.);
#205=ORIENTED_EDGE($,*,*,#165,.F.);
#206=ORIENTED_EDGE($,*,*,#166,.F.);
#207=ORIENTED_EDGE($,*,*,#162,.T.);
#208=ORIENTED_EDGE($,*,*,#170,.T.);
#209=ORIENTED_EDGE($,*,*,#171,.F.);
#210=ORIENTED_EDGE($,*,*,#172,.T.);
#211=ORIENTED_EDGE($,*,*,#173,.T.);
#212=ORIENTED_EDGE($,*,*,#174,.T.);
#213=ORIENTED_EDGE($,*,*,#175,.F.);
#214=ORIENTED_EDGE($,*,*,#176,.T.);
#215=ORIENTED_EDGE($,*,*,#171,.T.);
#216=ORIENTED_EDGE($,*,*,#177,.T.);
#217=ORIENTED_EDGE($,*,*,#178,.F.);
#218=ORIENTED_EDGE($,*,*,#179,.T.);
#219=ORIENTED_EDGE($,*,*,#175,.T.);
#220=ORIENTED_EDGE($,*,*,#180,.T.);
#221=ORIENTED_EDGE($,*,*,#181,.F.);
#222=ORIENTED_EDGE($,*,*,#182,.T.);
#223=ORIENTED_EDGE($,*,*,#178,.T.);
#224=ORIENTED_EDGE($,*,*,#183,.T.);
#225=ORIENTED_EDGE($,*,*,#184,.F.);
#226=ORIENTED_EDGE($,*,*,#185,.T.);
#227=ORIENTED_EDGE($,*,*,#181,.T.);
#228=ORIENTED_EDGE($,*,*,#186,.T.);
#229=ORIENTED_EDGE($,*,*,#187,.F.);
#230=ORIENTED_EDGE($,*,*,#188,.T.);
#231=ORIENTED_EDGE($,*,*,#184,.T.);
#232=ORIENTED_EDGE($,*,*,#189,.T.);
#233=ORIENTED_EDGE($,*,*,#190,.F.);
#234=ORIENTED_EDGE($,*,*,#191,.T.);
#235=ORIENTED_EDGE($,*,*,#187,.T.);
#236=ORIENTED_EDGE($,*,*,#192,.T.);
#237=ORIENTED_EDGE($,*,*,#173,.F.);
#238=ORIENTED_EDGE($,*,*,#193,.T.);
#239=ORIENTED_EDGE($,*,*,#190,.T.);
#240=ORIENTED_EDGE($,*,*,#170,.F.);
#241=ORIENTED_EDGE($,*,*,#192,.F.);
#242=ORIENTED_EDGE($,*,*,#189,.F.);
#243=ORIENTED_EDGE($,*,*,#186,.F.);
#244=ORIENTED_EDGE($,*,*,#183,.F.);
#245=ORIENTED_EDGE($,*,*,#180,.F.);
#246=ORIENTED_EDGE($,*,*,#177,.F.);
#247=ORIENTED_EDGE($,*,*,#174,.F.);
#248=ORIENTED_EDGE($,*,*,#167,.T.);
#249=ORIENTED_EDGE($,*,*,#193,.F.);
#250=ORIENTED_EDGE($,*,*,#172,.F.);
#251=ORIENTED_EDGE($,*,*,#176,.F.);
#252=ORIENTED_EDGE($,*,*,#179,.F.);
#253=ORIENTED_EDGE($,*,*,#182,.F.);
#254=ORIENTED_EDGE($,*,*,#185,.F.);
#255=ORIENTED_EDGE($,*,*,#188,.F.);
#256=ORIENTED_EDGE($,*,*,#191,.F.);
#257=ORIENTED_EDGE($,*,*,#168,.T.);
#258=CONICAL_SURFACE($,#280,31.5908174517711,10.0000000000001);
#259=CONICAL_SURFACE($,#283,31.4144904710626,9.99999999999955);
#260=ADVANCED_FACE($,(#87,#78),#258,.F.);
#261=ADVANCED_FACE($,(#88,#79),#259,.F.);
#262=ADVANCED_FACE($,(#89,#80),#75,.F.);
#263=ADVANCED_FACE($,(#90,#81),#76,.T.);
#264=ADVANCED_FACE($,(#91,#82),#77,.T.);
#265=ADVANCED_FACE($,(#92,#83),#60,.T.);
#266=ADVANCED_FACE($,(#93,#84),#61,.T.);
#267=ADVANCED_FACE($,(#94),#62,.T.);
#268=ADVANCED_FACE($,(#95),#63,.T.);
#269=ADVANCED_FACE($,(#96),#64,.T.);
#270=ADVANCED_FACE($,(#97),#65,.T.);
#271=ADVANCED_FACE($,(#98),#66,.T.);
#272=ADVANCED_FACE($,(#99),#67,.T.);
#273=ADVANCED_FACE($,(#100),#68,.T.);
#274=ADVANCED_FACE($,(#101),#69,.T.);
#275=ADVANCED_FACE($,(#102,#85),#70,.T.);
#276=ADVANCED_FACE($,(#103,#86),#71,.F.);
#277=CLOSED_SHELL($,(#260,#261,#262,#263,#264,#265,#266,#267,#268,#269,
#270,#271,#272,#273,#274,#275,#276));
#278=MANIFOLD_SOLID_BREP('2C3',#277);
#279=AXIS2_PLACEMENT_3D('placement',#381,#305,#306);
#280=AXIS2_PLACEMENT_3D($,#382,#307,#308);
#281=AXIS2_PLACEMENT_3D($,#384,#309,#310);
#282=AXIS2_PLACEMENT_3D($,#386,#311,#312);
#283=AXIS2_PLACEMENT_3D($,#387,#313,#314);
#284=AXIS2_PLACEMENT_3D($,#389,#315,#316);
#285=AXIS2_PLACEMENT_3D($,#391,#317,#318);
#286=AXIS2_PLACEMENT_3D($,#392,#319,#320);
#287=AXIS2_PLACEMENT_3D($,#393,#321,#322);
#288=AXIS2_PLACEMENT_3D($,#395,#323,#324);
#289=AXIS2_PLACEMENT_3D($,#397,#325,#326);
#290=AXIS2_PLACEMENT_3D($,#398,#327,#328);
#291=AXIS2_PLACEMENT_3D($,#400,#329,#330);
#292=AXIS2_PLACEMENT_3D($,#402,#331,#332);
#293=AXIS2_PLACEMENT_3D($,#403,#333,#334);
#294=AXIS2_PLACEMENT_3D($,#404,#335,#336);
#295=AXIS2_PLACEMENT_3D($,#405,#337,#338);
#296=AXIS2_PLACEMENT_3D($,#414,#343,#344);
#297=AXIS2_PLACEMENT_3D($,#420,#348,#349);
#298=AXIS2_PLACEMENT_3D($,#426,#353,#354);
#299=AXIS2_PLACEMENT_3D($,#432,#358,#359);
#300=AXIS2_PLACEMENT_3D($,#438,#363,#364);
#301=AXIS2_PLACEMENT_3D($,#444,#368,#369);
#302=AXIS2_PLACEMENT_3D($,#450,#373,#374);
#303=AXIS2_PLACEMENT_3D($,#453,#377,#378);
#304=AXIS2_PLACEMENT_3D($,#454,#379,#380);
#305=DIRECTION('axis',(0.,0.,1.));
#306=DIRECTION('refdir',(1.,0.,0.));
#307=DIRECTION('center_axis',(1.,-1.83691E-016,0.));
#308=DIRECTION('ref_axis',(-1.83691E-016,-1.,0.));
#309=DIRECTION('center_axis',(-1.,0.,0.));
#310=DIRECTION('ref_axis',(0.,-1.,0.));
#311=DIRECTION('center_axis',(-1.,0.,0.));
#312=DIRECTION('ref_axis',(0.,-1.,0.));
#313=DIRECTION('center_axis',(-1.,1.83691E-016,0.));
#314=DIRECTION('ref_axis',(-1.83691E-016,-1.,0.));
#315=DIRECTION('center_axis',(-1.,0.,0.));
#316=DIRECTION('ref_axis',(0.,-1.,0.));
#317=DIRECTION('center_axis',(-1.,0.,0.));
#318=DIRECTION('ref_axis',(0.,-1.,0.));
#319=DIRECTION('center_axis',(-1.,1.83691E-016,0.));
#320=DIRECTION('ref_axis',(-1.83691E-016,-1.,0.));
#321=DIRECTION('center_axis',(-1.,1.83691E-016,0.));
#322=DIRECTION('ref_axis',(-1.83691E-016,-1.,0.));
#323=DIRECTION('center_axis',(-1.,0.,0.));
#324=DIRECTION('ref_axis',(0.,-1.,0.));
#325=DIRECTION('center_axis',(-1.,0.,0.));
#326=DIRECTION('ref_axis',(0.,-1.,0.));
#327=DIRECTION('center_axis',(-1.,1.83691E-016,0.));
#328=DIRECTION('ref_axis',(-1.83691E-016,-1.,0.));
#329=DIRECTION('center_axis',(1.,0.,0.));
#330=DIRECTION('ref_axis',(0.,-1.,0.));
#331=DIRECTION('center_axis',(-1.,0.,0.));
#332=DIRECTION('ref_axis',(0.,-1.,0.));
#333=DIRECTION('center_axis',(-1.,0.,0.));
#334=DIRECTION('ref_axis',(0.,0.,-1.));
#335=DIRECTION('center_axis',(1.,0.,0.));
#336=DIRECTION('ref_axis',(0.,0.,1.));
#337=DIRECTION('center_axis',(0.,0.,1.));
#338=DIRECTION('ref_axis',(1.,0.,0.));
#339=DIRECTION($,(0.,1.,0.));
#340=DIRECTION($,(1.,0.,0.));
#341=DIRECTION($,(0.,-1.,0.));
#342=DIRECTION($,(1.,0.,0.));
#343=DIRECTION('center_axis',(0.,0.707106781186549,0.707106781186546));
#344=DIRECTION('ref_axis',(1.,0.,0.));
#345=DIRECTION($,(0.,0.707106781186546,-0.707106781186549));
#346=DIRECTION($,(1.,0.,0.));
#347=DIRECTION($,(0.,-0.707106781186546,0.707106781186549));
#348=DIRECTION('center_axis',(0.,1.,0.));
#349=DIRECTION('ref_axis',(0.,0.,1.));
#350=DIRECTION($,(0.,0.,-1.));
#351=DIRECTION($,(1.,0.,0.));
#352=DIRECTION($,(0.,0.,1.));
#353=DIRECTION('center_axis',(0.,0.707106781186547,-0.707106781186549));
#354=DIRECTION('ref_axis',(-1.,0.,0.));
#355=DIRECTION($,(0.,-0.707106781186548,-0.707106781186546));
#356=DIRECTION($,(1.,0.,0.));
#357=DIRECTION($,(0.,0.707106781186548,0.707106781186546));
#358=DIRECTION('center_axis',(0.,0.,-1.));
#359=DIRECTION('ref_axis',(-1.,0.,0.));
#360=DIRECTION($,(0.,-1.,0.));
#361=DIRECTION($,(1.,0.,0.));
#362=DIRECTION($,(0.,1.,0.));
#363=DIRECTION('center_axis',(0.,-0.707106781186548,-0.707106781186547));
#364=DIRECTION('ref_axis',(-1.,0.,0.));
#365=DIRECTION($,(0.,-0.707106781186547,0.707106781186548));
#366=DIRECTION($,(1.,0.,0.));
#367=DIRECTION($,(0.,0.707106781186547,-0.707106781186548));
#368=DIRECTION('center_axis',(0.,-1.,0.));
#369=DIRECTION('ref_axis',(0.,0.,-1.));
#370=DIRECTION($,(0.,0.,1.));
#371=DIRECTION($,(1.,0.,0.));
#372=DIRECTION($,(0.,0.,-1.));
#373=DIRECTION('center_axis',(0.,-0.707106781186547,0.707106781186548));
#374=DIRECTION('ref_axis',(1.,0.,0.));
#375=DIRECTION($,(0.,0.707106781186548,0.707106781186547));
#376=DIRECTION($,(0.,-0.707106781186548,-0.707106781186547));
#377=DIRECTION('center_axis',(1.,0.,0.));
#378=DIRECTION('ref_axis',(0.,0.,-1.));
#379=DIRECTION('center_axis',(1.,0.,0.));
#380=DIRECTION('ref_axis',(0.,0.,-1.));
#381=CARTESIAN_POINT('',(0.,0.,0.));
#382=CARTESIAN_POINT('Origin',(75.5,-5.684342E-014,0.));
#383=CARTESIAN_POINT('',(78.0000000000001,32.0316349035422,-3.922614E-015));
#384=CARTESIAN_POINT('Origin',(78.0000000000001,-5.684342E-014,0.));
#385=CARTESIAN_POINT('',(73.,31.1499999999998,-3.814649E-015));
#386=CARTESIAN_POINT('Origin',(72.9999999999999,-5.684342E-014,0.));
#387=CARTESIAN_POINT('Origin',(1.50000000000028,0.,0.));
#388=CARTESIAN_POINT('',(3.00000000000063,31.1499999999998,-3.814649E-015));
#389=CARTESIAN_POINT('Origin',(3.00000000000062,0.,0.));
#390=CARTESIAN_POINT('',(4.884981E-015,31.6789809421253,-3.879428E-015));
#391=CARTESIAN_POINT('Origin',(0.,0.,0.));
#392=CARTESIAN_POINT('Origin',(38.0000000000003,-5.684342E-014,0.));
#393=CARTESIAN_POINT('Origin',(62.9,-5.684342E-014,0.));
#394=CARTESIAN_POINT('',(78.0000000000001,37.6499999999999,-4.610643E-015));
#395=CARTESIAN_POINT('Origin',(78.0000000000001,-5.684342E-014,0.));
#396=CARTESIAN_POINT('',(47.8000000000001,37.6499999999999,-4.610643E-015));
#397=CARTESIAN_POINT('Origin',(47.8000000000001,-5.684342E-014,0.));
#398=CARTESIAN_POINT('Origin',(62.9,-5.684342E-014,0.));
#399=CARTESIAN_POINT('',(30.2,37.6499999999999,4.610643E-015));
#400=CARTESIAN_POINT('Origin',(30.2,-5.684342E-014,0.));
#401=CARTESIAN_POINT('',(6.394885E-014,37.6499999999999,-4.610643E-015));
#402=CARTESIAN_POINT('Origin',(5.684342E-014,0.,0.));
#403=CARTESIAN_POINT('Origin',(5.684342E-014,-34.6644904710626,0.));
#404=CARTESIAN_POINT('Origin',(78.0000000000001,-34.8408174517712,0.));
#405=CARTESIAN_POINT('Origin',(30.2,-16.5685424949238,40.));
#406=CARTESIAN_POINT('',(47.8000000000001,-16.5685424949238,40.));
#407=CARTESIAN_POINT('',(47.8000000000001,16.5685424949239,40.));
#408=CARTESIAN_POINT($,(47.8000000000001,-16.5685424949238,40.));
#409=CARTESIAN_POINT('',(30.2,16.5685424949239,40.));
#410=CARTESIAN_POINT($,(30.2,16.5685424949239,40.));
#411=CARTESIAN_POINT('',(30.2,-16.5685424949238,40.));
#412=CARTESIAN_POINT($,(30.2,16.5685424949239,40.));
#413=CARTESIAN_POINT($,(30.2,-16.5685424949238,40.));
#414=CARTESIAN_POINT('Origin',(30.2,16.5685424949239,40.));
#415=CARTESIAN_POINT('',(47.8000000000001,40.,16.5685424949238));
#416=CARTESIAN_POINT($,(47.8000000000001,16.5685424949239,40.));
#417=CARTESIAN_POINT('',(30.2,40.,16.5685424949238));
#418=CARTESIAN_POINT($,(30.2,40.,16.5685424949238));
#419=CARTESIAN_POINT($,(30.2,40.,16.5685424949238));
#420=CARTESIAN_POINT('Origin',(30.2,40.,16.5685424949238));
#421=CARTESIAN_POINT('',(47.8000000000001,40.,-16.5685424949238));
#422=CARTESIAN_POINT($,(47.8000000000001,40.,16.5685424949238));
#423=CARTESIAN_POINT('',(30.2,40.,-16.5685424949238));
#424=CARTESIAN_POINT($,(30.2,40.,-16.5685424949238));
#425=CARTESIAN_POINT($,(30.2,40.,-16.5685424949238));
#426=CARTESIAN_POINT('Origin',(30.2,40.,-16.5685424949238));
#427=CARTESIAN_POINT('',(47.8000000000001,16.5685424949237,-40.));
#428=CARTESIAN_POINT($,(47.8000000000001,40.,-16.5685424949238));
#429=CARTESIAN_POINT('',(30.2,16.5685424949237,-40.));
#430=CARTESIAN_POINT($,(30.2,16.5685424949237,-40.));
#431=CARTESIAN_POINT($,(30.2,16.5685424949237,-40.));
#432=CARTESIAN_POINT('Origin',(30.2,16.5685424949237,-40.));
#433=CARTESIAN_POINT('',(47.8000000000001,-16.5685424949238,-40.));
#434=CARTESIAN_POINT($,(47.8000000000001,16.5685424949237,-40.));
#435=CARTESIAN_POINT('',(30.2,-16.5685424949238,-40.));
#436=CARTESIAN_POINT($,(30.2,-16.5685424949238,-40.));
#437=CARTESIAN_POINT($,(30.2,-16.5685424949238,-40.));
#438=CARTESIAN_POINT('Origin',(30.2,-16.5685424949238,-40.));
#439=CARTESIAN_POINT('',(47.8000000000001,-40.,-16.5685424949238));
#440=CARTESIAN_POINT($,(47.8000000000001,-16.5685424949238,-40.));
#441=CARTESIAN_POINT('',(30.2,-40.,-16.5685424949238));
#442=CARTESIAN_POINT($,(30.2,-40.,-16.5685424949238));
#443=CARTESIAN_POINT($,(30.2,-40.,-16.5685424949238));
#444=CARTESIAN_POINT('Origin',(30.2,-40.,-16.5685424949238));
#445=CARTESIAN_POINT('',(47.8000000000001,-40.,16.5685424949238));
#446=CARTESIAN_POINT($,(47.8000000000001,-40.,-16.5685424949238));
#447=CARTESIAN_POINT('',(30.2,-40.,16.5685424949238));
#448=CARTESIAN_POINT($,(30.2,-40.,16.5685424949238));
#449=CARTESIAN_POINT($,(30.2,-40.,16.5685424949238));
#450=CARTESIAN_POINT('Origin',(30.2,-40.,16.5685424949238));
#451=CARTESIAN_POINT($,(47.8000000000001,-40.,16.5685424949238));
#452=CARTESIAN_POINT($,(30.2,-16.5685424949238,40.));
#453=CARTESIAN_POINT('Origin',(47.8000000000001,-5.684342E-014,7.993606E-015));
#454=CARTESIAN_POINT('Origin',(30.2,-5.684342E-014,7.993606E-015));
#455=UNCERTAINTY_MEASURE_WITH_UNIT(LENGTH_MEASURE(0.01),#457,
'DISTANCE_ACCURACY_VALUE',
'Maximum model space distance between geometric entities at asserted c
onnectivities');
#456=(
GEOMETRIC_REPRESENTATION_CONTEXT(3)
GLOBAL_UNCERTAINTY_ASSIGNED_CONTEXT((#455))
GLOBAL_UNIT_ASSIGNED_CONTEXT((#457,#460,#458))
REPRESENTATION_CONTEXT('','3D')
);
#457=(
LENGTH_UNIT()
NAMED_UNIT(*)
SI_UNIT(.MILLI.,.METRE.)
);
#458=(
NAMED_UNIT(*)
SI_UNIT($,.STERADIAN.)
SOLID_ANGLE_UNIT()
);
#459=DIMENSIONAL_EXPONENTS(0.,0.,0.,0.,0.,0.,0.);
#460=(
CONVERSION_BASED_UNIT('degree',#462)
NAMED_UNIT(#459)
PLANE_ANGLE_UNIT()
);
#461=(
NAMED_UNIT(*)
PLANE_ANGLE_UNIT()
SI_UNIT($,.RADIAN.)
);
#462=PLANE_ANGLE_MEASURE_WITH_UNIT(PLANE_ANGLE_MEASURE(0.01745329252),#461);
#463=SHAPE_DEFINITION_REPRESENTATION(#464,#465);
#464=PRODUCT_DEFINITION_SHAPE('',$,#467);
#465=SHAPE_REPRESENTATION('',(#279),#456);
#466=PRODUCT_DEFINITION_CONTEXT('3D Mechanical Parts',#470,'design');
#467=PRODUCT_DEFINITION('NFV212','NFV212',#468,#466);
#468=PRODUCT_DEFINITION_FORMATION('',$,#472);
#469=APPLICATION_PROTOCOL_DEFINITION('international standard',
'automotive_design',2009,#470);
#470=APPLICATION_CONTEXT(
'Core Data for Automotive Mechanical Design Process');
#471=PRODUCT_CONTEXT('3D Mechanical Parts',#470,'mechanical');
#472=PRODUCT('NFV212','NFV212',$,(#471));
#473=PRESENTATION_STYLE_ASSIGNMENT((#475));
#474=PRESENTATION_STYLE_ASSIGNMENT((#476));
#475=SURFACE_STYLE_USAGE(.BOTH.,#477);
#476=SURFACE_STYLE_USAGE(.BOTH.,#478);
#477=SURFACE_SIDE_STYLE($,(#479));
#478=SURFACE_SIDE_STYLE($,(#480));
#479=SURFACE_STYLE_FILL_AREA(#481);
#480=SURFACE_STYLE_FILL_AREA(#482);
#481=FILL_AREA_STYLE($,(#483));
#482=FILL_AREA_STYLE($,(#484));
#483=FILL_AREA_STYLE_COLOUR($,#485);
#484=FILL_AREA_STYLE_COLOUR($,#486);
#485=COLOUR_RGB('',0.509803921568627,0.509803921568627,0.588235294117647);
#486=COLOUR_RGB('',1.,0.,0.);
ENDSEC;
END-ISO-10303-21;
